» » »

Hatebreed, Concieved Through An Act Of Violence Tabs (ver.2)

Artists:  A B C D E F G H I J K L M N O P Q R S T U V W X Y Z # 

Concieved Through An Act Of Violence Tabs (ver.2)

Hatebreed Tabs
 Rating:
4/5 (4 votes)
Concieved Through An Act Of Violence lessons Tabs too difficult? Try these video lessons and learn fast
                This song kicks hardcore ass. It's also really easy to play

Tuning: CGCFAD

			Intro  (w/ dist.)	

       D ----------------------------------------------------------------
       A -----------------------------------------------------------------
       F ------------------------------------------------------------------
       C -3---3---3----5-----6--------------------------------------------------
       G -3---3---3----5-----6---------------------------------------------------
       C -3---3---3----5-----6--------------------------------------------------
            pm........


			Verse (3x)

       D -------------------------------------------------------|----------------- ------------------------------
       A --------------------------------------------------------|---------------- ---------------------------------
       F --------------------------------------------------------|---------------- ------------------------------------
       C --0---0---0----0----0---0---0---0---0---0---0--|--------0---0---0---0--0- ---3---3---3---5---6-------
       G --0---0---0----0----0---0---0---0---0---0---0--|--------0---0---0---0--0- ---3---3---3---5---6----
       C --0---0---0----0----0---0---0---0---0---0---0--|--------0---0---0---0--0- ---3---3---3---5---6-------
             pm....................................................................... ..................... 	 




				Pre-Chorus (5x)

       D ----------------------------------------------------------------
       A -----------------------------------------------------------------
       F ------------------------------------------------------------------
       C -3--3--3--3---0---0--0--0---3--3--3--3---0--0--0--0-----6---5----6---5--6 ---4------------
       G -3--3--3--3---0---0--0--0---3--3--3--3---0--0--0--0-----6---5----6---5--6 ---4-----------
       C -3--3--3--3---0---0--0--0---3--3--3--3---0--0--0--0-----6---5----6---5--6 ---4-------------	 

				
					Chorus

       D ------------------------------------------------------------------------- ---|------------------------------------
       A ------------------------------------------------------------------------- ----|-----------------------------------
       F ------------------------------------------------------------------------- ----|-------------------------------------
       C ---6--5--6--5--6--4-----6--5--6--5--6--4-----6--5--6--5--6--4--|---6--5-- 6--5--6--4--4--0---------	
       G ---6--5--6--5--6--4-----6--5--6--5--6--4-----6--5--6--5--6--4--|---6--5-- 6--5--6--4--4--0---------
       C ---6--5--6--5--6--4-----6--5--6--5--6--4-----6--5--6--5--6--4--|---6--5-- 6--5--6--4--4--0---------


       D ----------------------------------------------------------------	
       A ----------------------------------------------------------------
       F ----------------------------------------------------------------
       C -------------------------------------3--3--3--5--6--------------
       G -------------------------------------3--3--3--5--6--------------
       C -0-0-0-0-0-0-0-0-0-0-0-0-------------3--3--3--5--6--------------
            pm...................................

       

       D ----------------------------------------------------------------	
       A ----------------------------------------------------------------
       F ----------------------------------------------------------------
       C --0--0--0--0--0--0--0--0--0--0--0-------------------------------
       G --0--0--0--0--0--0--0--0--0--0--0-------------------------------
       C --0--0--0--0--0--0--0--0--0--0--0-------------------------------
             pm...............................................



That's the song. I think it's pretty accurate. Listen to the song for the proper timing. If there needs to be any corrections, please let me know.  any questions, comments, problems, etc, e-mail me. If anyone has any TABS form "Perseverance", I would like some. Thanks.
            
Submit corrections

comments powered by Disqus
↑ Back to top | Hatebreed Tabs for Concieved Through An Act Of Violence. Lyrics for acoustic guitar and electric guitar. Tablatures and chords are parodies/interpretations of the original songs. You may use it for private study, scholarship, research or language learning purposes only