» » »

Conceived Through An Act Of Violence Bass tabs (ver.1)

Artists:  A B C D E F G H I J K L M N O P Q R S T U V W X Y Z # 

Conceived Through An Act Of Violence Bass tabs (ver.1)

Hatebreed
Rating:
0/5 (0 votes)

Hard to play? Try these video lessons and learn fast.
                
   Intro           Verse                    
F ---------------|------------------------------------
C ---------------|------------------------------------
G ---------------|------------------------------------
C -3-3-3-4---5---|---0-0-0----0----0--0-0-0---0-0-0---

   Pre-chorus   
F -----------------|-----------------|-----------------|-----------------
C -----------------|-----------------|-----------------|-----------------
G -----------------|-----------------|-0-0---0-1-0-----|-----------------
C -3-3---3-0-0---0-|-3-3---3-0-0---0-|---------------3-|-4-4---4-4-4---4-

   Chorus
F -----------------|-----------------
C -----------------|-----------------
G –0-0---0-1-0-----|-----------------
C ---------------3-|-4-4---4-4-4---4-

Rinse, lather, repeat. Emails and comments welcome.
            
Hard to play? Try these video lessons and learn fast. | Correct




comments powered by Disqus
↑ Back to top | Tablatures and chords are parodies/interpretations of the original songs. You may use it for private study, scholarship, research or language learning purposes only