>
 >
Conceived Through An Act Of Violence

Conceived Through An Act Of Violence Bass Tabs

Hatebreed - Conceived Through An Act Of Violence chords, tabs, tablatures, lyrics

Guitar lessons | Add/correct | Request | Top 50 tabs Artists:  A B C D E F G H I J K L M N O P Q R S T U V W X Y Z 0-9

Conceived Through An Act Of Violence Bass Tabs – Hatebreed

CD, Sheet music, Poster

Do you like Conceived Through An Act Of Violence? Share with your friends now
Bass TabsTabs

   Intro           Verse                    
F ---------------|------------------------------------
C ---------------|------------------------------------
G ---------------|------------------------------------
C -3-3-3-4---5---|---0-0-0----0----0--0-0-0---0-0-0---

   Pre-chorus   
F -----------------|-----------------|-----------------|-----------------
C -----------------|-----------------|-----------------|-----------------
G -----------------|-----------------|-0-0---0-1-0-----|-----------------
C -3-3---3-0-0---0-|-3-3---3-0-0---0-|---------------3-|-4-4---4-4-4---4-

   Chorus
F -----------------|-----------------
C -----------------|-----------------
G 0-0---0-1-0-----|-----------------
C ---------------3-|-4-4---4-4-4---4-

Rinse, lather, repeat. Emails and comments welcome.





Comments


Popular Hatebreed tabs & chords
Most Truth Bass Tabs
Before Dishonor Tabs
Concieved Through An Act Of Violence 1 Tabs
Condemned Until Rebirth 1 Tabs
Doomsayer 1 Tabs
Doomsayer 5 Tabs
I Will Be Heard 2 Tabs
Live For This 3 Tabs
Most Truth Tabs
To The Threshold 1 Tabs


Song lyrics



↑ Back to top | Tablatures and chords are parodies/interpretations of the original songs. You may use it for private study, scholarship, research or language learning purposes only
© 2014 AZChords.com Contact us | Privacy policy | DMCA | Add/correct tabs | Request tabs | Top 50 tabs