>
 >
Before Dishoner

Before Dishoner Bass Tabs

Hatebreed - Before Dishoner chords, tabs, tablatures, lyrics

Guitar lessons | Add/correct | Request | Top 50 tabs Artists:  A B C D E F G H I J K L M N O P Q R S T U V W X Y Z 0-9

Before Dishoner Bass Tabs – Hatebreed

CD, Sheet music, Poster

Do you like Before Dishoner? Share with your friends now
Bass Tabs
Theres a guitar fill at the begining
G:---------------------------------------------------------]
D:---------------------------------------------------------]
A:----------------------------------------5--8--7--------]
D:000000003006005-00000000-00-00---------]

cary on doing that riff then it kicks into the beat down bit

G:---------------------------------------------------]
D:----------------------------------------------------]
A:----------------------------------------------------]
D:00100100100100134313-------------------]

G:---------------------------------------]
D:---------------------------------------]
A:---------------------------------------]
D:0--------------0---------------------]

G:---------------------------------------]
D:---------------------------------------]
A:-------------6-5----------------------------]
D:000-000-----6-5-3-0--------------------]

G:---------------------------------------]
D:---------------------------------------]
A:---------------------------------------]
D:00134313-------------------------------]

thats all you need figure out the amount you do them for yourself





Comments


Popular Hatebreed tabs & chords
Destroy Everything Bass Tabs
Betrayed By Life Tabs
Destroy Everything Tabs
Doomsayer Tabs
I Will Be Heard 1 Tabs
Last Breath 1 Tabs
Perseverence Tabs
Smash Your Enemies 1 Tabs
This Is Now (Intro) Tabs
To The Threshold 1 Tabs


Song lyrics



↑ Back to top | Tablatures and chords are parodies/interpretations of the original songs. You may use it for private study, scholarship, research or language learning purposes only
© 2014 AZChords.com Contact us | Privacy policy | DMCA | Add/correct tabs | Request tabs | Top 50 tabs