» » »

As Diehard As They Come Bass tabs (ver.1)

Artists:  A B C D E F G H I J K L M N O P Q R S T U V W X Y Z # 

As Diehard As They Come Bass tabs (ver.1)

Hatebreed
Rating:
0/5 (0 votes)

Hard to play? Try these video lessons and learn fast.
                Hatebreed - As diehard as they come
Album     - Supremacy

Tuning: C,G,C,F


Intro:

F|-----------------------------------------|
C|-----------------------------------------|
G|-----------------------------------------|
C|-00-----00-00------00------1-0-0-0-1-0-0-|


Verse:

F|-------------------------------|
C|-------------------------------|
G|-5-5--5-6-6-5-5-3-3--3-9-9-6-6-|
C|-------------------------------|


F|---------------------------------------|
C|-----------7-8-7-----------------------|
G|---7-8-7-----------7-8-7---------------|
C|-0-------0-------0-------1-0-0-0-1-0-0-|

Endriff:

F|-----------------------------------------------|
C|-----------------------------------------------|
G|---7--8--7-------------7--8--7-----------------|
C|-0---------0-3--4--0-0---------000-0-0-000-0-0-|

Hatebreed rulez!
            
Hard to play? Try these video lessons and learn fast. | Correct




comments powered by Disqus
↑ Back to top | Tablatures and chords are parodies/interpretations of the original songs. You may use it for private study, scholarship, research or language learning purposes only