» » »

This Time Its Real Tabs (ver.2)

Artists:  A B C D E F G H I J K L M N O P Q R S T U V W X Y Z # 

This Time Its Real Tabs (ver.2)

Haste The Day
Rating:
0/5 (0 votes)

Hard to play? Try these video lessons and learn fast.
                Haste The Day
"This Time Its Real"
When Everything Falls (2005)

My second tab from this album. The first tab for this song,
theres a bunch of stuff thats missing, so heres mine.

Things to know:
-. palm mute
-* pinch harmonic
-p pull off
-h hammer on
-# harmonic
-/ slide up
-\ slide down

Tuning Drop C: C G C F A D

D:-------------------:
A:-------------------:
F:-------------------:
C:-5-7-8-----12\10\9-:
G:-5-7-8-----10\-8\7-:
C:-5-7-8-000---------:
         ...

(play these next two parts twice)
D:----------------------------------------------------------:
A:----------------------------------------------------------:
F:----------------------------------------------------------:
C:-----14\12\10-----15\14\12-----10\9/10--------------------:
G:-----12\10\-8-----13\12\10------8\7/-8--------------------:
C:-000----------000----------000---------000-5p3p0-7p5p0-7*-:
   ...          ...          ...         ...

D:------------------------------------------------------------:
A:------------------------------------------------------------:
F:------------------------------------------------------------:
C:-----14\12\10-----15\14\12-----10\9/10----------------------:
G:-----12\10\-8-----13\12\10------8\7/-8-----8p7p0-----7h8h10-:
C:-000----------000----------000---------000-------000--------: 
   ...          ...          ...         ...       ...

                      (1,3,4 end)(2nd end)
D:---------------------:---------:-------:
A:---------------------:---------:-------:
F:---------------------:---------:----5#-:
C:---------------------:-8~------:-8~----:
G:-0000-00-00-0000-000-:-8~------:-8~----:
C:-0000-00-00-0000-000-:-8~-7\\\-:-8~----: 
   .... .. .. .... ...

D:----------------------------------------------------------:
A:----------------------------------------------------------:
F:----------------------------------------------------------:
C:-----14\12\10-----15\14\12-----10\9/10--------------------:
G:-----12\10\-8-----13\12\10------8\7/-8--------------------:
C:-000----------000----------000---------000-5p3p0-7p5p0-7*-:
   ...          ...          ...         ...

D:------------------------------------------------------------:
A:------------------------------------------------------------:
F:------------------------------------------------------------:
C:-----14\12\10-----15\14\12-----10\9/10----------------------:
G:-----12\10\-8-----13\12\10------8\7/-8-----8p7p0-----7h8h10-:
C:-000----------000----------000---------000-------000--------: 
   ...          ...          ...         ...       ...

(play these next two parts twice)
D:--------------------------------------------------------:
A:--------------------------------------------------------:
F:--------------------------------------------------------:
C:----------------------------9/10---9/10----12\10---10\9-:
G:----3h5---3h5---8p7---8p7---7/-8---7/-8----10\-8----8\7-:
C:-000---000---000---000---000----000-----000-----000-----:
   ...   ...   ...   ...   ...    ...     ...     ...

D:----------------------------------------------------:
A:----------------------------------------------------:
F:----------------------------------------------------:
C:----------------------------9/10---9/10----8----7\5-:
G:----3h5---3h5---8p7---8p7---7/-8---7/-8----8----5\3-:
C:-000---000---000---000---000----000----000-8-000----:
   ...   ...   ...   ...   ...    ...    ...   ...

(dont have 3rd end,sorry)(1,3,4 end)(2nd end)
D:-----------------------:---------:-------:
A:-----------------------:---------:-------:
F:-----------------------:---------:----5#-:
C:-----------------------:-8~------:-8~----:
G:-0000-00-00-0000-000---:-8~------:-8~----:
C:-0000-00-00-0000-000---:-8~-7\\\-:-8~----: 
   .... .. .. .... ...

(listen for the strumming rhythm)           (x2)
D:--------------------------------------------:
A:--------------------------------------------:
F:--------------------------------------------:
C:-12--8--5--0-----7-----7-----7--3--7--------:
G:-12--8--5--0-000-5-000-5-000-5--3--7--5-7-8-:
C:-12--8--5--0-000---000---000----3--7--5-7-8-:
               ...   ...   ...          . . .

(sweet breakdown time!)
D:---------------------------:--------------------------:
A:---------------------------:--------------------------:
F:------(play twice)---------:--------------------------:
C:---------------------------:--------------------------:
G:---------------------------:--------------------5-7-8-:
C:-0-00-00--0-0-00-00-0-0000-:-0-00-00--0-0-00-00-5-7-8-:
   . .. ..  . . .. .. . ....   . .. ..  . . .. .. . . .

                 (play 2 times, last time 5,7,8 not muted)
D:---------------------------:--------------------------:
A:---------------------------:--------------------------:
F:---(play three times)------:--------------------------:
C:---------------------------:--------------------------:
G:-0-00-00--0-0-00-00-0-0000-:-0-00-00--0-0-00-00-5-7-8-:
C:-0-00-00--0-0-00-00-0-0000-:-0-00-00--0-0-00-00-5-7-8-:
   . .. ..  . . .. .. . ....   . .. ..  . . .. .. . . .

D:-------------:
A:-------------:
F:-------------:
C:-----12\10\9-:
G:-----10\-8\7-:
C:-000---------:
   ...

(listen for the strumming rhythm)           (x2)
D:--------------------------------------------:
A:--------------------------------------------:
F:--------------------------------------------:
C:-12--8--5--0-----7-----7-----7--3--7--------:
G:-12--8--5--0-000-5-000-5-000-5--3--7--5-7-8-:
C:-12--8--5--0-000---000---000----3--7--5-7-8-:
               ...   ...   ...          . . .

D:----:
A:----:
F:----:
C:-0~-:
G:-0~-:
C:-0~-:

thank you
other tabs of mine: Burden Of A Day-3, Before Their Eyes-4, Haste The Day-1, Novella-1, TDWP-1
            
Hard to play? Try these video lessons and learn fast. | Correct




comments powered by Disqus
↑ Back to top | Tablatures and chords are parodies/interpretations of the original songs. You may use it for private study, scholarship, research or language learning purposes only