>
 >
The Minor Prophets

The Minor Prophets Bass Tabs

Haste The Day - The Minor Prophets chords, tabs, tablatures, lyrics

Guitar lessons | Add/correct | Request | Top 50 tabs Artists:  A B C D E F G H I J K L M N O P Q R S T U V W X Y Z 0-9

The Minor Prophets Bass Tabs – Haste The Day

CD, Sheet music, Poster

Do you like The Minor Prophets? Share with your friends now
Bass Tabs
Haste the Day
Minor Prophets

Drop C (CGCF)

Come in at (:22)
|----------------------------------|
|----------------------------------|
|----------------------------------|(3x)
|-8-888--5-555-0-000-000-10-1010---|

|---------------------------|
|---------------------------|
|---------------------------|
|--8-88888888--5-5555555----|


(:42)
|-------------------------------------------|
|-------------------------------------------|(3x)
|-------5/8--------------------10------8----|
|--0-0------8-77777--8-88888-8----8--7---7--|

|-----------------------------|
|-----------------------------|
|-------5/8-------------------|
|--0-0------8-77777--8-88888--|


After 4th time is this
|---------------------------------------------------------|
|---------------------------------------------------------|
|--3-1-----------------3-3333--3-1-0---------------------|
|------0--5-3-0-00000000---------------5-3/88888888-55555--|


|---------------------------------------------------------------|
|---------------------------------------------------------------|
|--3-1-----------------3-3333--3-1-0---------------------------|
|------0--5-3-0-00000000---------------5-3/88888888-55555555555--|


Chorus:
|------------------------------------------------------------------|
|-------------------------------------------------------5-5-7-5----|
|------------------------------------------------------5-5------8--|
|-8-888--5-555-0-000-000-10-1010---8-888--5-555--0-000-----------8-|


|------------------------------------------------------------------|
|------------------------------------------------------------------|
|------------------------------------------------------------------|
|-8-888--5-555-0-000-000-10-1010---8-8888888888--5-55555555--------|

Post Chorus/Bridge Thing

|-------------------------------|
|-------------------------------|
|-------------------------------|(3x)
|--8-8888888--0000000--333--55--|

|-------------------------------|
|-------------------------------|
|-------------------------------|
|--8-8888888--101010101010--888-|


|-------------------------------------------|
|-------------------------------------------|(3x)
|-------5/8--------------------10------8----|
|--0-0------8-77777--8-88888-8----8--7---7--|

|---------------|
|---------------|
|--3-1----------|
|------0-5-3/8--|


|-------------------------------|
|-------------------------------|
|-------------------------------|(2x)
|--8-8888888--0000000--333--55--|

|-----------------------------------------------------------------------------|
|-----------------------------------------------------------------------------|
|--------13-12-13-15-13-12-13-12----------------------------------------------|
|--8-888-------------------------14-12-11---33-55--8-8888888--10101010-88-875-|
         ((((((((Played really Fast))))))))


|----------------------------------|
|----------------------------------|
|----------------------------------|(3x)
|-8-888--5-555-0-000-000-10-1010---|

|---------------------------|
|---------------------------|
|---------------------------|
|--8-88888888--5-5555555----|

|---------------------------------------------------------|
|---------------------------------------------------------|
|--3-1------------------3-3333--3-1-0---------------------|
|------0-5-3-0-00000000---------------5-3/88888888-55555--|


|---------------------------------------------------------------|
|---------------------------------------------------------------|
|--3-1------------------3-3333--3-1-0---------------------------|
|------0-5-3-0-00000000---------------5-3/88888888-55555555555--|


|----------------------------------------|
|----------------------------------------|
|--3-1----------------------------------|
|------0--5-3/8--00-000-00-00000-00-000-8-|
                .. ... .. ..... .. ...
|----------------------------------------|
|----------------------------------------|
|----------------------------------------|
|--00--000-00-0000-00-00-0-00-8----------|
   ..  ... .. .... .. .. . ..
|----------------------------------------|
|----------------------------------------|
|----------------------------------------|
|--00--000-00-0000-00-00-0-00-1----------|
   ..  ... .. .... .. .. . ..
Play that a few more times(the song fades out)

and then your done....





Comments


Popular Haste The Day tabs & chords
Needles 2 Bass Tabs
When Everything Falls Bass Tabs
Autumn Chords
American Love 2 Tabs
An Honest Confession Intro Tabs
Autumn Tabs
Blue 42 Tabs
Breaking My Own Heart Tabs
Breaking My Own Heart 4 Tabs
Minor Prophets Tabs


Song lyrics



↑ Back to top | Tablatures and chords are parodies/interpretations of the original songs. You may use it for private study, scholarship, research or language learning purposes only
© 2014 AZChords.com Contact us | Privacy policy | DMCA | Add/correct tabs | Request tabs | Top 50 tabs