>
 >
Sons Of The Fallen Nation

Sons Of The Fallen Nation Guitar Tabs

Haste The Day - Sons Of The Fallen Nation chords, tabs, tablatures, lyrics

Guitar lessons | Add/correct | Request | Top 50 tabs Artists:  A B C D E F G H I J K L M N O P Q R S T U V W X Y Z 0-9

Sons Of The Fallen Nation Guitar Tabs – Haste The Day

CD, Sheet music, Poster

Do you like Sons Of The Fallen Nation? Share with your friends now
Tabs
 ---------------------------------------------------------------------------------

Tuning: Drop C (C-G-C-F-A-D)



 Intro Riff: 0:00-0:06
D|----------------------------------------------------------------------|
A|----------------------------------------------------------------------|
F|----------------------------------------------------------------------|
C|---------------------------------------------7------------------------|
G|-----------7-5---7-5--8-------------7-5-------------------------------|
C|-0-000-000----5-7---5b-----0-000-000----5-5b--------------------------|
 
Post-Intro Riff: 0:07-0:12
D|----------------------------------------------------------------------|
A|----------------------------------------------------------------------|
F|-14-14-14-14-14-14-14-14-14-14--XX-12-12-12-12-12-12-12-12------------|
C|-14-14-14-14-14-14-14-14-14-14--XX-12-12-12-12-12-12-12-12------------|
G|-12-12-12-12-12-12-12-12-12-12--XX-10-10-10-10-10-10-10-10----5-3-----|
C|-----------------------------------------------------------3-5---5-3--|


Intro Riff x1
Post-Intro Riff x1

Chorus Riff: 0:22-0:49
D|----------------------------------------------------------------------|
A|--10-10-10-10-10-10-10-10-10-10--12-12-12-12-12-12-12-12-12-----------|
F|--10-10-10-10-10-10-10-10-10-10--12-12-12-12-12-12-12-12-12-----------|
C|--8--8--8--8--8--8--8--8--8--8---10-10-10-10-10-10-10-10-10-----------|
G|----------------------------------------------------------------------|
C|----------------------------------------------------------------------|

 
D|----------------------------------------------------------------------|
A|--14-14-14-14-14-14-14-14-14-14--12-X-12-12-12-12---------------------|
F|--14-14-14-14-14-14-14-14-14-14--12-X-12-12-12-12---------------------|
C|--12-12-12-12-12-12-12-12-12-12--10-X-10-10-10-10-8-8-8-8-8-8-8-8-8-8-|
G|--------------------------------------------------8-8-8-8-8-8-8-8-8-8-|
C|--------------------------------------------------8-8-8-8-8-8-8-8-8-8-|


D|----------------------------------------------------------------------|
A|--10-10-10-10-10-10-10-10-10-10--12-12-12-12-12-12-12-12-12-----------|
F|--10-10-10-10-10-10-10-10-10-10--12-12-12-12-12-12-12-12-12-----------|
C|--8--8--8--8--8--8--8--8--8--8---10-10-10-10-10-10-10-10-10-----------|
G|----------------------------------------------------------------------|
C|----------------------------------------------------------------------|


 
D|----------------------------------------------------------------------|
A|--14-14-14-14-14-14-14-14-14-14--12-X-12-12-12-12---------------------|
F|--14-14-14-14-14-14-14-14-14-14--12-X-12-12-12-12---------------------|
C|--12-12-12-12-12-12-12-12-12-12--10-X-10-10-10-10-8-8-8-8-8-7-7-7-7-7-|
G|--------------------------------------------------8-8-8-8-8-7-7-7-7-7-|
C|--------------------------------------------------8-8-8-8-8-7-7-7-7-7-|


D|--------------------------------------------------------------|
A|--------------------------------------------------------------|
F|--3-3/5-------------------------------------------------------|
C|--3-3/5-------------------------------------------------------|
G|--1-1/3-------------------------------------------------------|
C|--------------------------------------------------------------|


END OF CHORUS

(Intro Riff->Post-Intro Riff)x2

   

Interlude Riff: 1:10-1:30


D|----------------------------------------------------------------------|
A|----------------------------------------------------------------------|
F|--------------------------------------------------10-9----7-----------|
C|--------------------------------------------------X--X----7-----------|
G|---------------7-5-----7--------------5-3-----5---8--7----5-----------|
C|---0-00-00-00------5-7----0-00-00-00------3-5-------------------------|
       .. .. ..               .. .. ..



D|----------------------------------------------------------------------|
A|----------------------------------------------------------------------|
F|---------------------------------------------------10-9----7----------|
C|---------------------------------------------------X--X----7----------|
G|----------------7-5------7---------------5-3----5--8--7----5----------|
C|---0-000-000-00------5-7----0-000-000-00----3-5-----------------------|
       ... ... ..               ... ... ..


Chorus Riff: 1:31-1:56

D|----------------------------------------------------------------------|
A|--10-10-10-10-10-10-10-10-10-10--12-12-12-12-12-12-12-12-12-----------|
F|--10-10-10-10-10-10-10-10-10-10--12-12-12-12-12-12-12-12-12-----------|
C|--8--8--8--8--8--8--8--8--8--8---10-10-10-10-10-10-10-10-10-----------|
G|----------------------------------------------------------------------|
C|----------------------------------------------------------------------|

 
D|----------------------------------------------------------------------|
A|--14-14-14-14-14-14-14-14-14-14--12-X-12-12-12-12---------------------|
F|--14-14-14-14-14-14-14-14-14-14--12-X-12-12-12-12---------------------|
C|--12-12-12-12-12-12-12-12-12-12--10-X-10-10-10-10-8-8-8-8-8-8-8-8-8-8-|
G|--------------------------------------------------8-8-8-8-8-8-8-8-8-8-|
C|--------------------------------------------------8-8-8-8-8-8-8-8-8-8-|


D|----------------------------------------------------------------------|
A|--10-10-10-10-10-10-10-10-10-10--12-12-12-12-12-12-12-12-12-----------|
F|--10-10-10-10-10-10-10-10-10-10--12-12-12-12-12-12-12-12-12-----------|
C|--8--8--8--8--8--8--8--8--8--8---10-10-10-10-10-10-10-10-10-----------|
G|----------------------------------------------------------------------|
C|----------------------------------------------------------------------|


 
D|----------------------------------------------------------------------|
A|--14-14-14-14-14-14-14-14-14-14--12-X-12-12-12-12---------------------|
F|--14-14-14-14-14-14-14-14-14-14--12-X-12-12-12-12---------------------|
C|--12-12-12-12-12-12-12-12-12-12--10-X-10-10-10-10-8-8-8-8-8-7-7-7-7-7-|
G|--------------------------------------------------8-8-8-8-8-7-7-7-7-7-|
C|--------------------------------------------------8-8-8-8-8-7-7-7-7-7-|


D|--------------------------------------------------------------|
A|--------------------------------------------------------------|
F|--3-3/5-------------------------------------------------------|
C|--3-3/5-------------------------------------------------------|
G|--1-1/3-------------------------------------------------------|
C|--------------------------------------------------------------|


2nd Interlude Riff: 1:57-2:25

D|-----------------------------------------------------------------|
A|-----------------------------------------------------------------|
F|--10/9/10-10/9/10------------10/9/10-----------------------------|
C|-----------------------------------------------------------------|
G|--8/7/8--8/7/8-----7-5----7--8/7/8--------------------7b---------|
C|----------------000---5-7------------000-000-000-----------------|
                   ...                 ... ... ...
2nd Interlude Riff x2 (do the 7b the last time only)


D|--------------------------------------------------------------|
A|--------------------------------------------------------------|
F|--------------------------------------------------------------|
C|--------------------------------------------------------------|
G|-----------------------------7-5-----7------------------------|
C|--3-2-3-000-000-000--3-2-3-------5-7-----33-22-55-22----------|
          ... ... ...  


D|--------------------------------------------------------------|
A|--------------------------------------------------------------|
F|--7777777-555555555-14141414141414----------------------------|
C|--7777777-555555555-14141414141414----------------------------|
G|--5555555-333333333-12121212121212----------------------------|
C|--------------------------------------------------------------|

                   (12-14s not 1-2 1-4s)

Chorus Riff: 2:47-3:07

D|----------------------------------------------------------------------|
A|--10-10-10-10-10-10-10-10-10-10--12-12-12-12-12-12-12-12-12-----------|
F|--10-10-10-10-10-10-10-10-10-10--12-12-12-12-12-12-12-12-12-----------|
C|--8--8--8--8--8--8--8--8--8--8---10-10-10-10-10-10-10-10-10-----------|
G|----------------------------------------------------------------------|
C|----------------------------------------------------------------------|

 
D|----------------------------------------------------------------------|
A|--14-14-14-14-14-14-14-14-14-14--12-X-12-12-12-12---------------------|
F|--14-14-14-14-14-14-14-14-14-14--12-X-12-12-12-12---------------------|
C|--12-12-12-12-12-12-12-12-12-12--10-X-10-10-10-10-8-8-8-8-8-8-8-8-8-8-|
G|--------------------------------------------------8-8-8-8-8-8-8-8-8-8-|
C|--------------------------------------------------8-8-8-8-8-8-8-8-8-8-|


D|----------------------------------------------------------------------|
A|--10-10-10-10-10-10-10-10-10-10--12-12-12-12-12-12-12-12-12-----------|
F|--10-10-10-10-10-10-10-10-10-10--12-12-12-12-12-12-12-12-12-----------|
C|--8--8--8--8--8--8--8--8--8--8---10-10-10-10-10-10-10-10-10-----------|
G|----------------------------------------------------------------------|
C|----------------------------------------------------------------------|


 
D|----------------------------------------------------------------------|
A|--14-14-14-14-14-14-14-14-14-14--12-X-12-12-12-12---------------------|
F|--14-14-14-14-14-14-14-14-14-14--12-X-12-12-12-12---------------------|
C|--12-12-12-12-12-12-12-12-12-12--10-X-10-10-10-10-8-8-8-8-8-7-7-7-7-7-|
G|--------------------------------------------------8-8-8-8-8-7-7-7-7-7-|
C|--------------------------------------------------8-8-8-8-8-7-7-7-7-7-|


Breakdown Riff: 3:08-3:20


D|--------------------------------------------------------------|
A|--------------------------------------------------------------|
F|--------------------------------------------------------------|
C|--------------------------------------------------------------|
G|-----------------------------5--------------------------------|
C|--3-2-3-000-000-000--3-2-3------------------------------------|
          ... ... ...


END OF SONG

Enjoy! Rate n Comment.
     





Comments


Popular Haste The Day tabs & chords
Travesty Bass Tabs
American Love Tabs
Blue 42 Tabs
Breaking My Own Heart 2 Tabs
Breaking My Own Heart 4 Tabs
Janet's Planet 2 Tabs
Stitches Tabs
Stitches 1 Tabs
Substance Tabs
White Collar Tabs


Song lyrics



↑ Back to top | Tablatures and chords are parodies/interpretations of the original songs. You may use it for private study, scholarship, research or language learning purposes only
© 2014 AZChords.com Contact us | Privacy policy | DMCA | Add/correct tabs | Request tabs | Top 50 tabs