>
 >
Ros King

Ros King Guitar Tabs

Haste The Day - Ros King chords, tabs, tablatures, lyrics

Guitar lessons | Add/correct | Request | Top 50 tabs Artists:  A B C D E F G H I J K L M N O P Q R S T U V W X Y Z 0-9

Ros King Guitar Tabs – Haste The Day

CD, Sheet music, Poster

Do you like Ros King? Share with your friends now
Tabs
Haste the Day


(Intro)
|------------------------------------------------------------------------------|
|------------------------------------------------------------------------------|
|---------9/10------9/10-----7--5/7-------------9/10------9/10-----7--5/7------|
|---------x--x------x--x-----x--x-x-------------x--x------x--x-----x--x-x------|
|-000-00--7/-8--00--7/-8--0--5--3/5-----000-00--7/-8--00--7/-8--0--5--3/5------|
|-000-00--------00--------0-------------000-00--------00--------0--------------|
| ... ..        ..        .             ... ..        ..        .
|
|------------------------------------------------------------------------------|
|------------------------------------------------------------------------------|
|------------------------------------------------------------------------------|
|------------------------------------------------------------------------------|
|------------------------------------------------------------------------------|
|------------------------------------------------------------------------------|

|------------------------------------------------------------------------------|
|------------------------------------------------------------------------------|
|---------9/10------9/10-----7--5/7-------------9/10------9/10-----7--5/7------|
|---------x--x------x--x-----x--x-x-------------x--x------x--x-----x--x-x------|
|-000-00--7/-8--00--7/-8--0--5--3/5-----000-00--7/-8--00--7/-8--0--5--3/5------|
|-000-00--------00--------0-------------000-00--------00--------0--------------|
| ... ..        ..        .             ... ..        ..        .
|
|------------------------------------------------------------------------------|
|------------------------------------------------------------------------------|
|---------9/10------9/10-----7--5/7-------------9/10------9/10-----7--5/7------|
|---------x--x------x--x-----x--x-x-------------x--x------x--x-----x--x-x------|
|-000-00--7/-8--00--7/-8--0--5--3/5-----000-00--7/-8--00--7/-8--0--5--3/5------|
|-000-00--------00--------0-------------000-00--------00--------0--------------|
  ... ..        ..        .             ... ..        ..        .

(Verse)
|------------------------------------------------------------------------------|
|------------------------------------------------------------------------------|
|---------9/10------9/10-----7--5/7-------------9/10------9/10-----7--5/7------|
|---------x--x------x--x-----x--x-x-------------x--x------x--x-----x--x-x------|
|-000-00--7/-8--00--7/-8--0--5--3/5-----000-00--7/-8--00--7/-8--0--5--3/5------|
|-000-00--------00--------0-------------000-00--------00--------0--------------|
| ... ..        ..        .             ... ..        ..        .
|
|------------------------------------------------------------------------------|
|------------------------------------------------------------------------------|
|---------9/10------9/10-----7--5/7-------------9/10------9/10-----7--5/7------|
|---------x--x------x--x-----x--x-x-------------x--x------x--x-----x--x-x------|
|-000-00--7/-8--00--7/-8--0--5--3/5-----000-00--7/-8--00--7/-8--0--5--3/5------|
|-000-00--------00--------0-------------000-00--------00--------0--------------|
  ... ..        ..        .             ... ..        ..        .

|------------------------------------------------------------------------------|
|------------------------------------------------------------------------------|
|---------9/10------9/10-----7--5/7-------------9/10------9/10-----7--5/7------|
|---------x--x------x--x-----x--x-x-------------x--x------x--x-----x--x-x------|
|-000-00--7/-8--00--7/-8--0--5--3/5-----000-00--7/-8--00--7/-8--0--5--3/5------|
|-000-00--------00--------0-------------000-00--------00--------0--------------|
| ... ..        ..        .             ... ..        ..        .
|
|------------------------------------------------------------------------------|
|------------------------------------------------------------------------------|
|---------9/10------9/10-----7--5/7-------------9/10------9/10-----7--5/7------|
|---------x--x------x--x-----x--x-x-------------x--x------x--x-----x--x-x------|
|-000-00--7/-8--00--7/-8--0--5--3/5-----000-00--7/-8--00--7/-8--0--5--3/5------|
|-000-00--------00--------0-------------000-00--------00--------0--------------|
  ... ..        ..        .             ... ..        ..        .

|------------------------------------------------------------------------------|
|------------------------------------------------------------------------------|
|---------9/10------9/10-----7--5/7-------------9/10------9/10-----7--5/7------|
|---------x--x------x--x-----x--x-x-------------x--x------x--x-----x--x-x------|
|-000-00--7/-8--00--7/-8--0--5--3/5-----000-00--7/-8--00--7/-8--0--5--3/5------|
|-000-00--------00--------0-------------000-00--------00--------0--------------|
| ... ..        ..        .             ... ..        ..        .
|
|------------------------------------------------------------------------------|
|--------10/11-----10/11-----8--6/8------------10/11-----10/11-----7--6/7------|
|---------x--x------x--x-----x--x-x-------------x--x------x--x-----x--x-x------|
|---------7/-8------7/-8-----5--3/5-------------7/-8------7/-8-----5--3/6------|
|-000-00--------00--------0-------------000-00--------00--------0--------------|
|-000-00--------00--------0-------------000-00--------00--------0--------------|
  ... ..        ..        .             ... ..        ..        .

|------------------------------------------------------------------------------|
|------------------------------------------------------------------------------|
|---------9/10------9/10-----7--5/7-------------9/10------9/10-----7--5/7------|
|---------x--x------x--x-----x--x-x-------------x--x------x--x-----x--x-x------|
|-000-00--7/-8--00--7/-8--0--5--3/5-----000-00--7/-8--00--7/-8--0--5--3/5------|
|-000-00--------00--------0-------------000-00--------00--------0--------------|
| ... ..        ..        .             ... ..        ..        .
|
|------------------------------------------------------------------------------|
|--------10/11-----10/11-----8--6/8------------10/11-----10/11-----7--6/7------|
|---------x--x------x--x-----x--x-x-------------x--x------x--x-----x--x-x------|
|---------7/-8------7/-8-----5--3/5-------------7/-8------7/-8-----5--3/6------|
|-000-00--------00--------0-------------000-00--------00--------0--------------|
|-000-00--------00--------0-------------000-00--------00--------0--------------|
  ... ..        ..        .             ... ..        ..        .

(Breakdown)
|-----------------------------------------------------------------------|
|-----------------------------------------------------------------------|
|-----------------------------------------------------------------------|
|--------------------------8-8/10-------------------------------8-8/10--|
|-000-00--0-0-0--000--000--8-8/10------000-00--0-0-0--000--000--8-8/10--|
|-000-00--0-0-0--000--000--8-8/10------000-00--0-0-0--000--000--8-8/10--|
| ... ..  . . .  ...  ...              ... ..  . . .  ...  ...  
|
|-----------------------------------------------------------------------|
|-----------------------------------------------------------------------|
|-----------------------------------------------------------------------|
|--------------------------8-8/10-------------------------------8-8/10--|
|-000-00--0-0-0--000--000--8-8/10------000-00--0-0-0--000--000--8-8/10--|
|-000-00--0-0-0--000--000--8-8/10------000-00--0-0-0--000--000--8-8/10--|
  ... ..  . . .  ...  ...              ... ..  . . .  ...  ...  

|-----------------------------------------------------------------------|
|-----------------------------------------------------------------------|
|-----------------------------------------------------------------------|
|--------------------------8-8/10-------------------------------8-8/10--|
|-000-00--0-0-0--000--000--8-8/10------000-00--0-0-0--000--000--8-8/10--|
|-000-00--0-0-0--000--000--8-8/10------000-00--0-0-0--000--000--8-8/10--|
| ... ..  . . .  ...  ...              ... ..  . . .  ...  ...  
|
|-----------------------------------------------------------------------|
|-----------------------------------------------------------------------|
|-----------------------------------------------------------------------|
|--------------------------8-8/10-------------------------------8-8/10--|
|-000-00--0-0-0--000--000--8-8/10------000-00--0-0-0--000--000--8-8/10--|
|-000-00--0-0-0--000--000--8-8/10------000-00--0-0-0--000--000--8-8/10--|
  ... ..  . . .  ...  ...              ... ..  . . .  ...  ...  

|------------------------------------------------------------------------------|
|------------------------------------------------------------------------------|
|------------------------------------------------------------------------------|
|-----------------------------8---8/10---------------------------------8--8/10-|
|-000-00--0-0-0--000---000----8---8/10-----000-00--0-0-0--000---000----8--8/10-|
|-000-00--0-0-0--000---000----8---8/10-----000-00--0-0-0--000---000----8--8/10-|
| ... ..  . . .  ...   ...                 ... ..  . . .  ...   ...  
|
|------------------------------------------------------------------------------|
|------------------------------------------------------------------------------|
|------------------------------------------------------------------------------|
|-----------------------------8---8/10---------------------------------8--8/10-|
|-000-00--0-0-0--000---000----8---8/10-----000-00--0-0-0--000---000----8--8/10-|
|-000-00--0-0-0--000---000----8---8/10-----000-00--0-0-0--000---000----8--8/10-|
| ... ..  . . .  ...   ...                 ... ..  . . .  ...   ...  
|
|------------------------------------------------------------------------------|
|------------------------------------------------------------------------------|
|----------------12-12-12-12-10-10-9/10----------------14-14-14-14-12-12/14-14-|
|-----------------x--x--x--x--x--x-x--x-----------------x--x--x--x--x--x--x--x-|
|----------------10-10-10-10--8--8-7/-8----------------12-12-12-12-10-10/12-12-|
|------------------------------------------------------------------------------|

|-----------------------------------------------------------------------------|
|-----------------------------------------------------------------------------|
|-----------------------------------------------------------------------------|
|-----------------------------8---8/10----------------------------------------|
|-000-00--0-0-0--000---000----8---8/10-----000-00--0-0-0--000--000--000--000--|
|-000-00--0-0-0--000---000----8---8/10-----000-00--0-0-0--000--000--000--000--|
| ... ..  . . .  ...   ...                 ... ..  . . .  ...  ...  ...  ...
|
|-----------------------------------------------------------------------------|
|-----------------------------------------------------------------------------|
|-----------------------------------------------------------------------------|
|-----------------------------8---8/10----------------------------------------|
|-000-00--0-0-0--000---000----8---8/10-----000-00--0-0-0--000--000--000--000--|
|-000-00--0-0-0--000---000----8---8/10-----000-00--0-0-0--000--000--000--000--|
| ... ..  . . .  ...   ...                 ... ..  . . .  ...  ...  ...  ...
|
|-----------------------------------------------------------------------------|
|-----------------------------------------------------------------------------|
|----------------14-14-14-14-12-12-10-10--------------------------------------|
|-----------------x--x--x--x--x--x--x--x--------------------------------------|
|----------------12-12-12-12-10-10--8--8--------------------------------------|
|-----------------------------------------------------------------------------|

(Chorus)
|------------------------------------------------------------------------------|
|------------------------------------------------------------------------------|
|------------------------------------------------------------------------------|
|-00-0000--7-7-7777--8-8-8888--5-5-5555--00-0000--7-7-7777--8-8-8888--5-5-5555-|
|-00-0000--7-7-7777--8-8-8888--5-5-5555--00-0000--7-7-7777--8-8-8888--5-5-5555-|
|-00-0000--7-7-7777--8-8-8888--5-5-5555--00-0000--7-7-7777--8-8-8888--5-5-5555-|
|
|------------------------------------------------------------------------------|
|------------------------------------------------------------------------------|
|-77-7777--9-9-9999-1010-1010--7-7-7777--77-7777--9-9-9999-1010-1010--7-7-7777-|
|-xx-xxxx--x-x-xxxx--x-x--x-x--x-x-xxxx--xx-xxxx--x-x-xxxx--x-x--x-x--x-x-xxxx-|
|-55-5555--7-7-7777--8-8--8-8--5-5-5555--55-5555--7-7-7777--8-8--8-8--5-5-5555-|
|------------------------------------------------------------------------------|

|------------------------------------------------------------------------------|
|------------------------------------------------------------------------------|
|------------------------------------------------------------------------------|
|-00-0000--7-7-7777--8-8-8888--5-5-5555--00-0000--7-7-7777--8-8-8888--5-5-5555-|
|-00-0000--7-7-7777--8-8-8888--5-5-5555--00-0000--7-7-7777--8-8-8888--5-5-5555-|
|-00-0000--7-7-7777--8-8-8888--5-5-5555--00-0000--7-7-7777--8-8-8888--5-5-5555-|
|
|------------------------------------------------------------------------------|
|------------------------------------------------------------------------------|
|-14-14-14-17-17-17-12-12-12--14-14-14--14-14-14--12-12-12--14-14-14--12-12-12-|
|--x--x--x--x--x--x--x--x--x---x--x--x---x--x--x---x--x--x---x--x--x---x--x--x-|
|-12-12-12-15-15-15-10-10-10--12-12-12--12-12-12--10-10-10--12-12-12--10-10-10-|
|------------------------------------------------------------------------------|

(Breakdown 2)
|-------------------------------------------------------------------|
|-------------------------------------------------------------------|
|-------------------------------------------------------------------|
|-----------------------8----------------------------------8--8/10--|
|-000-00-------000------8----------000--00--0-0-0--000-000-8--8/10--|
|-000-00-------000------8----------000--00--0-0-0--000-000-8--8/10--|
| ... ..       ...                 ...  ..  . . .  ... ...
|
|-------------------------------------------------------------------|
|-------------------------------------------------------------------|
|-------------------------------------------------------------------|
|-------------------------8/10-----------------------------8--8/10--|
|--------0-0-0-----000----8/10-----000--00--0-0-0--000-000-8--8/10--|
|--------0-0-0-----000----8/10-----000--00--0-0-0--000-000-8--8/10--|
         . . .     ...             ...  ..  . . .  ... ...  

|-----------------------------------------------------------------------|
|-----------------------------------------------------------------------|
|-----------------------------------------------------------------------|
|--------------------------8-8/10-------------------------------8-8/10--|
|-000-00--0-0-0--000--000--8-8/10------000-00--0-0-0--000--000--8-8/10--|
|-000-00--0-0-0--000--000--8-8/10------000-00--0-0-0--000--000--8-8/10--|
| ... ..  . . .  ...  ...              ... ..  . . .  ...  ...  
|
|-----------------------------------------------------------------------|
|-----------------------------------------------------------------------|
|-----------------------------------------------------------------------|
|--------------------------8-8/10-------------------------------8-8/10--|
|-000-00--0-0-0--000--000--8-8/10------000-00--0-0-0--000--000--8-8/10--|
|-000-00--0-0-0--000--000--8-8/10------000-00--0-0-0--000--000--8-8/10--|
  ... ..  . . .  ...  ...              ... ..  . . .  ...  ...  

|----------------------------------|
|----------------------------------|
|----------------------------------|
|--------------------------8-8/10--|
|-000-00--0-0-0--000--000--8-8/10--|
|-000-00--0-0-0--000--000--8-8/10--|
| ... ..  . . .  ...  ...          
|
|----------------------------------|
|----------------------------------|
|----------------------------------|
|--------------------------8-8/10--|
|-000-00--0-0-0--000--000--8-8/10--|
|-000-00--0-0-0--000--000--8-8/10--|
  ... ..  . . .  ...  ...        

(Outro)
|------------------------------------------------------------------------------|
|------------------------------------------------------------------------------|
|-14-14-14--12----------------------12-12-12-14----------------14-14-14--12----|
|--------------15-15-15-15-14-15-14-------------15-15-15-14-15--------------15-|
|------------------------------------------------------------------------------|
|------------------------------------------------------------------------------|
|
|------------------------------------------------------------------------------|
|------------------------------------------------------------------------------|
|--7----7----5----------------------5-----5--7------------------7---7----5-----|
|--7----7----5--8--8--8--8--8--8-8--5-----5--7--8-8-8-8-8-8-8---7---7----5---8-|
|--5----5----3--8--8--8--8--8--8-8--3-----3--5--8-8-8-8-8-8-8---5---5----3---8-|
|---------------8--8--8--8--8--8-8--------------8-8-8-8-8-8-8----------------8-|

|--------------------------------------------------------------------------|
|--------------------------------------------------------------------------|
|----------------------------------------------------------------------|
|-15-15-15-15-15--12-12-12-12-14-12-12-12-15-12-12-12-12-14-12-12-12-------|
|--------------------------------------------------------------------------|
|--------------------------------------------------------------------------|
|
|--------------------------------------------------------------------------|
|--------------------------------------------------------------------------|
|--------------------------------------------------------------------------|
|-8-8-8-8-8-8--8---7--7--7--7--7--7--7--7--7--7--7--7--7--7--7--7--7--7--7-|
|-8-8-8-8-8-8--8---7--7--7--7--7--7--7--7--7--7--7--7--7--7--7--7--7--7--7-|
|-8-8-8-8-8-8--8---7--7--7--7--7--7--7--7--7--7--7--7--7--7--7--7--7--7--7-|
                   .  .  .  .  .  .  .  .  .  .  .  .  .  .  .  .  .  .  .

|-----------------------------------------------------------------------|
|-----------------------------------------------------------------------|
|-14-14-14--12--------------------------------------------14-14-14--12--|
|--------------15-15-15-14-15-14-12-12-12-14-15-15-15-15----------------|
|-----------------------------------------------------------------------|
|-----------------------------------------------------------------------|
|
|-----------------------------------------------------------------------|
|-----------------------------------------------------------------------|
|--7----7---5--------------------5-----5--7----------------7-----7---5--|
|--7----7---5--8-8-8-8-8-8-8-----5-----5--7--8-88-8-88-8---7-----7---5--|
|--5----5---3--8-8-8-8-8-8-8-----3-----3--5--8-88-8-88-8---5-----5---3--|
|--------------8-8-8-8-8-8-8-----------------8-88-8-88-8----------------|

|-----------------------------------------------------------|*|
|-----------------------------------------------------------|*|
|-------------------------------------15-15-15-15-15-15-15--|*|
|-15-15-15-14-15-14-15-14-14-14-14-14-----------------------|*|
|-----------------------------------------------------------|*|
|-----------------------------------------------------------|*|
|
|-----------------------------------------------------------|*|
|-----------------------------------------------------------|*|
|--------------------------------------8--8--8--8--8--8--8--|*|
|--8--8--8--8--8--8----77-77777-77777--8--8--8--8--8--8--8--|*|
|--8--8--8--8--8--8----77-77777-77777--6--6--6--6--6--6--6--|*|
|--8--8--8--8--8--8----77-77777-77777-----------------------|*|
                       .. ..... .....





Comments


Popular Haste The Day tabs & chords
Haunting Bass Tabs
Substance Bass Tabs
68 Tabs
American Love Tabs
American Love 1 Tabs
Autumn 2 Tabs
Fallen Tabs
O Come Emmanuel Tabs
This Time Its Real Tabs
Travesty 1 Tabs


Song lyrics



↑ Back to top | Tablatures and chords are parodies/interpretations of the original songs. You may use it for private study, scholarship, research or language learning purposes only
© 2014 AZChords.com Contact us | Privacy policy | DMCA | Add/correct tabs | Request tabs | Top 50 tabs