>
 >
Resolve

Resolve Guitar Tabs

Haste The Day - Resolve chords, tabs, tablatures, lyrics

Guitar lessons | Add/correct | Request | Top 50 tabs Artists:  A B C D E F G H I J K L M N O P Q R S T U V W X Y Z 0-9

Resolve Guitar Tabs – Haste The Day

CD, Sheet music, Poster

Do you like Resolve? Share with your friends now
Tabs
Drop C

(INTRO)x2 (0:00-0:20)
|------------------------------------------------------------------------------|
|------------------------------------------------------------------------------|
|------------------------------------------------------------------------------|
|------------------------------------------------------------------------------|
|-0-0-15-0-14-0-10-0-7-0-10-0-12-0-14-0-0-15-0-14-0-10-0-0-7-0-10-0-12-0-10-0-0|
|------------------------------------------------------------------------------|
|
|------------------------------------------------------------------------------|
|------------------------------------------------------------------------------|
|------------------------------------------------------------------------------|
|-------------------------------------------------------------------~~~~~~~~~~~|
|-0-15-0-14-0-10-0-7-0-10-0-12-0-14-0-0-15-0-14-0-10-0-0-7-0-10-0-12-----------|
|------------------------------------------------------------------------------|


(VERSE)x2 (0:20-0:40)
|------------------------------------------------------------------------------|
|------------------------------------------------------------------------------|
|------7/10-9-----------------------7/10-9--------------------------7/10-9-----|
|------------------------------------------------------------------------------|
|-0-0--5/8--7-10-10-10-7-7-7---0-0--5/8--7--12-12-12-10-10-10--0-0--5/8--7-----|
|-0-0---------10-10-10-7-7-7---0-0----------12-12-12-10-10-10--0-0-------------|
|
|------------------------------------------------------------------------------|
|------------------------------------------------------------------------------|
|-----------------15--15-15--15-15-15/14--14-14--14-14-14----------------------|
|------------------------------------------------------------------------------|
|-10-10-10-7-7-7--13--13-13--13-13-13/12--12-12--12-12-12----------------------|
|-10-10-10-7-7-7---------------------------------------------------------------|


(Resoooooooooooooooollllvvvvveeee....)x2 (0:40-0:50)
|------------------------------------------------------------------------------|
|------------------------------------------------------------------------------|
|-19--19-19--19-19-19/17--17-17--17-17-17/15--15-15--15-15-15/14--14-14--14-14-|
|------------------------------------------------------------------------------|
|-17--17-17--17-17-17/15--15-15--15-15-15/13--13-13--13-13-13/12--12-12--12-12-|
|------------------------------------------------------------------------------|


(CHORUS)x2 (0:51-1:11)
|------------------------------------------------------------------------------|
|------------------------------------------------------------------------------|
|------------------------------------------------------------------------------|
|------------------------------------------------------------------------------|
|-0-0-15-0-14-0-10-0-7-0-10-0-12-0-14-0-0-15-0-14-0-10-0-0-7-0-10-0-12-0-10-0-0|
|------------------------------------------------------------------------------|
|
|------------------------------------------------------------------------------|
|------------------------------------------------------------------------------|
|------------------------------------------------------------------------------|
|-------------------------------------------------------------------~~~~~~~~~~~|
|-0-15-0-14-0-10-0-7-0-10-0-12-0-14-0-0-15-0-14-0-10-0-0-7-0-10-0-12-----------|
|------------------------------------------------------------------------------|


(VERSE)x2 (1:12-1:31)
|------------------------------------------------------------------------------|
|------------------------------------------------------------------------------|
|------7/10-9-----------------------7/10-9--------------------------7/10-9-----|
|------------------------------------------------------------------------------|
|-0-0--5/8--7-10-10-10-7-7-7---0-0--5/8--7--12-12-12-10-10-10--0-0--5/8--7-----|
|-0-0---------10-10-10-7-7-7---0-0----------12-12-12-10-10-10--0-0-------------|
|
|------------------------------------------------------------------------------|
|------------------------------------------------------------------------------|
|-----------------15--15-15--15-15-15/14--14-14--14-14-14----------------------|
|------------------------------------------------------------------------------|
|-10-10-10-7-7-7--13--13-13--13-13-13/12--12-12--12-12-12----------------------|
|-10-10-10-7-7-7---------------------------------------------------------------|


(Resoooooooooooooooollllvvvvveeee....)x2 (1:32-1:41)
|------------------------------------------------------------------------------|
|------------------------------------------------------------------------------|
|-19--19-19--19-19-19/17--17-17--17-17-17/15--15-15--15-15-15/14--14-14--14-14-|
|------------------------------------------------------------------------------|
|-17--17-17--17-17-17/15--15-15--15-15-15/13--13-13--13-13-13/12--12-12--12-12-|
|------------------------------------------------------------------------------|


(uh oh...) 2 Guitar Harmony (Not sure if it is 100% accurate)
|GUITAR 1 and 2 (1:42-1:51)
|------------------------------------------------------------------------------|
|------------------------------------------------------------------------------|
|------------------------------------------------------------------------------|
|------------------------------------------------------------------------------|
|-000-000-000-0-0-7-8----------7-8--0-0-000-000-7-8-0-0------0-0---------------|
|-000-000-000-0-0-----10-8-7-8------0-0-000-000-----0-0-10-8-0-0-7-8-----------|
| ... ... ...                           ... ...
|
|------------------------------------------------------------------------------|
|------------------------------------------------------------------------------|
|------------------------------------------------------------------------------|
|------------------------------------------------------------------------------|
|-000-000-000-0-0-7-8----------7-8--0-0-000-000-7-8-0-0------0-0-000-----------|
|-000-000-000-0-0-----10-8-7-8------0-0-000-000-----0-0-10-8-0-0-000-----------|
| ... ... ...                           ... ...                  ...
|
|GUITAR 1 (1:52-2:05)
|------------------------------------------------------------------------------|
|------------------------------------------------------------------------------|
|------------------------------------------------------------------------------|
|------------------------------------------------------------------------------|
|-000-000-000-0-0-7-8----------7-8--0-0-000-000-7-8-0-0------0-0---------------|
|-000-000-000-0-0-----10-8-7-8------0-0-000-000-----0-0-10-8-0-0-7-8-----------|
| ... ... ...                           ... ...
|
|------------------------------------------------------------------------------|
|------------------------------------------------------------------------------|
|------------------------------------------------------------------------------|
|------------------------------------------------------------------5-----------|
|-000-000-000-0-0-7-8----------7-8--0-0-000-000-7-8-0-0------0-0-0-5-----------|
|-000-000-000-0-0-----10-8-7-8------0-0-000-000-----0-0-10-8-0-0-0-5-----------|
| ... ... ...                           ... ...                  
|
|GUITAR 2 (1:52-2:05)
|------------------------------------------------------------------------------|
|------------------------------------------------------------------------------|
|------------------------------------------------------------------------------|
|------------------------------------------------------------------------------|
|-000-000-000-0-0-10-12-------------10-12--0-0-000-000-10-12-0-0-------0-0-----|
|-000-000-000-0-0-------15-14-12-14--------0-0-000-000-------0-0-15-14-0-0-12-14
| ... ... ...                                  ... ...  

|
|------------------------------------------------------------------------------|
|------------------------------------------------------------------------------|
|------------------------------------------------------------------------------|
|----------------------------------------------------------------------------5-|
|-000-000-000-0-0-10-12-------------10-12--0-0-000-000-10-12-0-0-------0-0-0-5-|
|-000-000-000-0-0-------15-14-12-14--------0-0-000-000-------0-0-15-14-0-0-0-5-|
| ... ... ...                                  ... ...  


(CHORUS)x2 (2:06-2:25)
|------------------------------------------------------------------------------|
|------------------------------------------------------------------------------|
|------------------------------------------------------------------------------|
|------------------------------------------------------------------------------|
|-0-0-15-0-14-0-10-0-7-0-10-0-12-0-14-0-0-15-0-14-0-10-0-0-7-0-10-0-12-0-10-0-0|
|------------------------------------------------------------------------------|
|
|------------------------------------------------------------------------------|
|------------------------------------------------------------------------------|
|------------------------------------------------------------------------------|
|-------------------------------------------------------------------~~~~~~~~~~~|
|-0-15-0-14-0-10-0-7-0-10-0-12-0-14-0-0-15-0-14-0-10-0-0-7-0-10-0-12-----------|
|------------------------------------------------------------------------------|

(TRANSITION) (2:26-2:28)
(VERSE)x2
|------------------------------------|
|------------------------------------|
|------7/10-9------------------------|
|------------------------------------|
|-0-0--5/8--7-10-10-10-7-7-7---------|
|-0-0---------10-10-10-7-7-7---------|

(FINAL BREAKDOWN) (2:28 - 2:50)
|------------------------------------------------------------------------------|
|------------------------------------------------------------------------------|
|------------------------------------------------------------------------------|
|------------------------------------------------------------------------------|
|-000-000-000-0-0-7-8----------7-8--0-0-000-000-7-8-0-0------0-0---------------|
|-000-000-000-0-0-----10-8-7-8------0-0-000-000-----0-0-10-8-0-0-7-8-----------|
| ... ... ...                           ... ...
|
|------------------------------------------------------------------------------|
|------------------------------------------------------------------------------|
|------------------------------------------------------------------------------|
|------------------------------------------------------------------------------|
|-000-000-000-0-0-7-8----------7-8--0-0-000-000-7-8-0-0------0-0-000-----------|
|-000-000-000-0-0-----10-8-7-8------0-0-000-000-----0-0-10-8-0-0-000-----------|
| ... ... ...                           ... ...                  ...
|
|GUITAR 1: (2:38-2:50)
|------------------------------------------------------------------------------|
|------------------------------------------------------------------------------|
|------------------------------------------------------------------------------|
|------------------------------------------------------------------------------|
|-000-000-000-0-0-7-8----------7-8--0-0-000-000-7-8-0-0------0-0---------------|
|-000-000-000-0-0-----10-8-7-8------0-0-000-000-----0-0-10-8-0-0-7-8-----------|
| ... ... ...                           ... ...
|
|------------------------------------------------------------------------------|
|------------------------------------------------------------------------------|
|------------------------------------------------------------------------------|
|------------------------------------------------------------------------------|
|-000-000-000-0-0-7-8----------7-8--0-0-000-000-7-8-0-0------0-0-3-2-----------|
|-000-000-000-0-0-----10-8-7-8------0-0-000-000-----0-0-10-8-0-0-3-2-----------|
| ... ... ...                           ... ...                  
|
|GUITAR 2: (2:38-2:50)
|------------------------------------------------------------------------------|
|------------------------------------------------------------------------------|
|------------------------------------------------------------------------------|
|------------------------------------------------------------------------------|
|-000-000-000-0-0-10-12-------------10-12--0-0-000-000-10-12-0-0-------0-0-----|
|-000-000-000-0-0-------15-14-12-14--------0-0-000-000-------0-0-15-14-0-0-12-14
| ... ... ...                                  ... ...  
|
|------------------------------------------------------------------------------|
|------------------------------------------------------------------------------|
|------------------------------------------------------------------------------|
|------------------------------------------------------------------------------|
|-000-000-000-0-0-10-12-------------10-12--0-0-000-000-10-12-0-0-------0-0-3-2-|
|-000-000-000-0-0-------15-14-12-14--------0-0-000-000-------0-0-15-14-0-0-3-2-|
| ... ... ...                                  ... ...  





Comments


Popular Haste The Day tabs & chords
American Love 1 Bass Tabs
Breaking My Own Heart Bass Tabs
Travesty Bass Tabs
68 Tabs
American Love 1 Tabs
Breaking My Own Heart 4 Tabs
Dogs Like Vultures Intro Tabs
Fallen Tabs
For A Lifetime Tabs
Substance Tabs


Song lyrics



↑ Back to top | Tablatures and chords are parodies/interpretations of the original songs. You may use it for private study, scholarship, research or language learning purposes only
© 2014 AZChords.com Contact us | Privacy policy | DMCA | Add/correct tabs | Request tabs | Top 50 tabs