>
 >
Pressure The Hinges

Pressure The Hinges Guitar Tabs

Haste The Day - Pressure The Hinges chords, tabs, tablatures, lyrics

Guitar lessons | Add/correct | Request | Top 50 tabs Artists:  A B C D E F G H I J K L M N O P Q R S T U V W X Y Z 0-9

Pressure The Hinges Guitar Tabs – Haste The Day

CD, Sheet music, Poster

Do you like Pressure The Hinges? Share with your friends now
Tabs


I'm not sure if it's 100%, but it's as close as I could get.  This is my first tab so 
give me crap!  Make sure you listen to the song for the timings!  enjoy :D


Tuning:Drop C (CGCFAD)


D|----------------------------------------------------------------------|
A|----------------------------------------------------------------------|
F|-----------5/8--10----------------------5/7---7/5---------------------|
C|----------------------------------------------------------------------|
G|-7-5-3-0---3/5--8----7-5-3-0------------3/5---5/3-------7-5-3-0-------|
C|-7-5-3-0-------------7-5-3-0---0-0-0-0-------------0-0--7-5-3-0--0-0--|
                                 . . . .             . .           . .

--------------------------------|
--------------------------------|
-5/7---7------------------------|   x3
------------8-88888888888-------|
-3/5---5----8-88888888888-------|
------------8-88888888888-------|


  0:32
  "Dodging bullets"
D|-------------------------------------------------------------------------|
A|-------------------------------------------------------------------------|
F|-------------------------------------------------------------------------|
C|-------------------------------------------------------------------------|
G|-7-5-3-0-------7-5-3-0------5-------0-------7-5-3-0----------------------|
C|-7-5-3-0-------7-5-3-0------5-------0-------7-5-3-0-----5555555577775555-|

  0:52
  "What are you afraid of?"
D|--------------------------|  x3
A|--------------------------|
F|--------------------------| On the second time, palm mute the 0's and 2's.
C|-8888-7777-0000-22-33-----|
G|-8888-7777-0000-22-33-----|
C|-8888-7777-0000-22-33-----|


  1:10
  "I'm running low on secrets"
D|----------------------------------------------------------------------|
A|----------------------------------------------------------------------|
F|-----------5/8--10----------------------5/7---7/5---------------------|
C|----------------------------------------------------------------------|
G|-7-5-3-0---3/5--8----7-5-3-0------------3/5---5/3-------7-5-3-0-------|
C|-7-5-3-0-------------7-5-3-0---0-0-0-0-------------0-0--7-5-3-0--0-0--|
                                 . . . .             . .           . .

--------------------------------|
--------------------------------|
-5/7---7------------------------|
------------8-88888888888-------|
-3/5---5----8-88888888888-------|
------------8-88888888888-------|

  1:22
  "Fifteen seconds"                                                       x2
D|------------------------------------------------------------------------|
A|------------------------------------------------------------------------|
F|------------------------------------------------------------------------|
C|------------------------------------------------------------------------|
G|--3h5p3---------------3h5p3--------------3h5p3--------------3/55555555--|
C|--------3p0--00--00---------3p0--00-00---------3p0--00-00---3/55555555--|
               ..  ..              .. ..              .. ..


  1:42
  "I see the light"                                                       x2
D|------------------------------------------------------------------------|
A|------------------------------------------------------------------------|
F|--5/77777777777777--5/77777777777777---1010101010101010--55555555-------|
C|------------------------------------------------------------------------|
G|--3/55555555555555--3/55555555555555---8-8-8-8-8-8-8-8---33333333-------|
C|-------------------------------------------------------------------5x16-|
                                                                     .

  1:58
  "When we turn around again"
D|--------------------------|  x3
A|--------------------------|
F|--------------------------| On the second time, palm mute the 0's and 2's.
C|-8888-7777-0000-22-33-----|
G|-8888-7777-0000-22-33-----|
C|-8888-7777-0000-22-33-----|


  2:16

D|------------------------|
A|------------------------|
F|------------------------|
C|-8888-7777-3333-1111----|
G|-8888-7777-3333-1111----|
C|-8888-7777-3333-1111----|


  2:20

D|----------------------------------------|  x2
A|----------------------------------------|
F|----------------------------------------|
C|-00000000-88888888-77777777-3333-1111---|
G|-00000000-88888888-77777777-3333-1111---|
C|-00000000-88888888-77777777-3333-1111---|

  2:42

D|-----------------------------------------|
A|-----------------------------------------|
F|-----------------------------------------|
C|-----------------------------------------|
G|-00000-00--00000000-3h5p3-----3h5p3------|
C|-00000-00--00000000-------3p0-------3p0--|
   ..... ..  ........

  2:57

D|-------------|
A|-------------|
F|-------------|x2
C|-------------|
G|--3h5p3------|
C|--------3p---|

  3:00

D|-----------------------------------------|
A|-----------------------------------------|
F|-----------------------------------------|
C|-----------------------------------------|
G|-00000-00--00000000-3h5p3-----3h5p3------|
C|-00000-00--00000000-------3p0-------3p0--|
   ..... ..  ........


  3:13

D|-------------|
A|-------------|
F|-------------|x10
C|-------------|
G|--3h5p3------|
C|--------3p---|

  3:24

D|------------------|
A|------------------|
F|------------------|
C|------------------|
G|-3333-1111-0x-----|
C|-3333-1111-0x-----|


  3:26
  (Clean Part)  LISTEN FOR STUMMING
D|-------------------------------------------------|
A|-------------------------------------------------|
F|-10-----9------7-----9--10-----9------10---------|
C|-8------7------5-----7--8------7------8----------|
G|-8------7------5-----7--8------7------8----------|
C|-8------7------5-----7--8------7------8----------|


3:34

D|--------------------------|
A|--------------------------|
F|--------------------------|
C|-8888-7777-0000-22-33-----|
G|-8888-7777-0000-22-33-----|
C|-8888-7777-0000-22-33-----|

I'm pretty sure you all know what to do at the end.
D|-----------------------------------------|
A|-----------------------------------------|
F|-----------------------------------------|
C|-----------------------------------------|
G|-00000-00--00000000-3h5p3-----3h5p3------|
C|-00000-00--00000000-------3p0-------3p0--|

Whew, finally I'm done.  Well I'm gonna submit it, and I hope it doesnt look like crap!  :/

[ .  Palm Mute
| /  slide up
| \  slide down
| h  hammer-on
| p  pull-off
| ~  vibrato
| +  harmonic
| x  Mute note





Comments


Popular Haste The Day tabs & chords
Needles Bass Tabs
Needles 2 Bass Tabs
Breaking My Own Heart Intro Tabs
Chorus Of Angels Tabs
Concerning The Way It Was Tabs
Invoke Reform Tabs
Minor Prophets Tabs
O Come Emmanuel Tabs
O Come Emmanuel 1 Tabs
Travesty Tabs


Song lyrics



↑ Back to top | Tablatures and chords are parodies/interpretations of the original songs. You may use it for private study, scholarship, research or language learning purposes only
© 2014 AZChords.com Contact us | Privacy policy | DMCA | Add/correct tabs | Request tabs | Top 50 tabs