» » »

One Life To Tabs (ver.1)

Artists:  A B C D E F G H I J K L M N O P Q R S T U V W X Y Z # 

One Life To Tabs (ver.1)

Haste The Day
Rating:
0/5 (0 votes)

Hard to play? Try these video lessons and learn fast.
                (Live)
Haste The Day
Burning Bridges ( 2004 )

Drop C

Left Guitar


--------------------------------------------------|D
--------------------------------------------------|A
-10101010101010109-9-9-9-8-8-8-8------------------|F
-x-x-x-x-x-x-x-x-x-x-x-x-x-x-x-x------------------|C
-8 8 8 8 8 8 8 8-7-7-7-7-6-6-6-6------------------|G
--------------------------------------------------|C


------------------------------------------------------|D
------------------------------------------------------|A
------------------------------------------------------|F
----12---13-----12h13p12--10h12p10--8h10p8--7h8p7-----|C
------------------------------------------------------|G
-00----0------0---------------------------------------|C
 PM   PM      PM

------------------------------------------------------|D
------------------------------------------------------|A
------------------------------------------------------|F
----12---13-----12h13p12--10h12p10--8h10p8--7p0-------|C
------------------------------------------------------|G
-00----0------0---------------------------------------|C
 PM   PM      PM

--------------------------------------------------|D
--------------------------------------------------|A
-10101010101010109-9-9-9-8-8-8-8------------------|F
-x-x-x-x-x-x-x-x-x-x-x-x-x-x-x-x------------------|C
-8 8 8 8 8 8 8 8-7-7-7-7-6-6-6-6------------------|G
--------------------------------------------------|C

------------------------------------------------------|D
------------------------------------------------------|A
------------------------------------------------------|F
----12---13-----12h13p12--10h12p10--8h10p8--7h8p7-----|C
------------------------------------------------------|G
-00----0------0---------------------------------------|C
 PM   PM      PM

------------------------------------------------------|D
------------------------------------------------------|A
------------------------------------------------------|F
----12---13-----12h13p12--10h12p10--8h10p8--7p0-------|C
------------------------------------------------------|G
-00----0------0---------------------------------------|C
 PM   PM      PM

--------------------------------------------------|D
--------------------------------------------------|A
-10101010101010109-9-9-9-8------------------------|F
-x-x-x-x-x-x-x-x-x-x-x-x-x--0-8-s-0---------------|C
-8 8 8 8 8 8 8 8-7-7-7-7-6--0-8-s-0---------------|G
----------------------------0-8-s-0---------------|C


----------------------------------------------------|D
----------------------------------------------------|A
-----7---7-s-5----7----7-s-5------------------------|F
-----x---x---x----x----x---x--------------------|C--| 3x
-----5---5-s-3----5----5-s-3------------------------|G
-0-0---0--------0----0--- ----0-0-0-000-------------|C
 PM-   PM       PM   PM       PM--------------------|
----------------------------------------------------|D
----------------------------------------------------|A
-10101010101010109-9-9-9-8-8-8-8--------------------|F
-x-x-x-x-x-x-x-x-x-x-x-x-x-x-x-x--------------------|C
-8 8 8 8 8 8 8 8-7-7-7-7-6-6-6-6--------------------|G
----------------------------------------------------|C

play that line 2 times

Time for breakdown


-----------------------------------------------------|D
-----------------------------------------------------|A
-----------------------------------------------------|F
------------------------------------------------|C---|  4x
-000--000-000--000-000-000-000--000--000-------------|G
-000--000-000--000-000-000-000--000--000-------------|C

PM---------------------------------------


--------------------------------------------------|D
--------------------------------------------------|A
--------------------------------------------------|F
-14-15-14-15-12--14----1414141414141414-----------|C
--x--x--x--x--x---x-----x-x-x-x-x-x-x-x-----------|G
-12-13-12-13-10--12----1212121212121212-----------|C


--------------------------------------------------|D
--------------------------------------------------|A
--------------------------------------------------|F
-14-15-14-15-14--12----1212121212121212-----------|C
--x--x--x--x--x---x-----x-x-x-x-x-x-x-x-----------|G
-12-13-12-13-12--10----1010101010101010-----------|C


--------------------------------------------------|D
--------------------------------------------------|A
--------------------------------------------------|F
-14-15-14-15-12--14----1414141414141414-----------|C
--x--x--x--x--x---x-----x-x-x-x-x-x-x-x-----------|G
-12-13-12-13-10--12----1212121212121212-----------|C


--------------------------------------------------|F
--------------------------------------------------|A
-10101010101010109-9-9-9-9-9-9-9------------------|D
-x-x-x-x-x-x-x-x-x-x-x-x-x-x-x-x------------------|C
-8-8-8-8-8-8-8-8-7-7-7-7-7-7-7-7------------------|G
--------------------------------------------------|C


2 x


-----------------------------------------------------|D
-----------------------------------------------------|A
-----------------------------------------------------|F
------------------------------------------------|C---|  4x
-000--000-000--000-000-000-000--000--000-------------|G
-000--000-000--000-000-000-000--000--000-------------|C

PM---------------------------------------

--------------------------------------------------|D
--------------------------------------------------|A
--------------------------------------------------|F
-14-15-14-15-12--14----1414141414141414-----------|C
--x--x--x--x--x---x-----x-x-x-x-x-x-x-x-----------|G
-12-13-12-13-10--12----1212121212121212-----------|C

--------------------------------------------------|D
--------------------------------------------------|A
--------------------------------------------------|F
-14-15-14-15-14--12----1212121212121212-----------|C
--x--x--x--x--x---x-----x-x-x-x-x-x-x-x-----------|G
-12-13-12-13-12--10----1010101010101010-----------|C

--------------------------------------------------|D
--------------------------------------------------|A
--------------------------------------------------|F
-14-15-14-15-12--14----1414141414141414-----------|C
--x--x--x--x--x---x-----x-x-x-x-x-x-x-x-----------|G
-12-13-12-13-10--12----1212121212121212-----------|C

--------------------------------------------------|F
--------------------------------------------------|A
-10101010101010109-9-9-9-9-9-9-9------------------|D
-x-x-x-x-x-x-x-x-x-x-x-x-x-x-x-x------------------|C
-8-8-8-8-8-8-8-8-7-7-7-7-7-7-7-7------------------|G
--------------------------------------------------|C


--------------------------------------------------|D
--------------------------------------------------|A
--------------------------------------------------|F
-14-15-14-15-12--14-------------------------------|C
--x--x--x--x--x---x-------------------------------|G
-12-13-12-13-10--12-0-0-0-000-000-----------------|C


--------------------------------------------------|D
--------------------------------------------------|A
--------------------------------------------------|F
-14-15-14-15-14--12-------------------------------|C
--x--x--x--x--x---x-------------------------------|G
-12-13-12-13-12--10-0-0-0-000-000-----------------|C


--------------------------------------------------|D
--------------------------------------------------|A
--------------------------------------------------|F
-14-15-14-15-12--14-------------------------------|C
--x--x--x--x--x---x-------------------------------|G
-12-13-12-13-10--12-0-0-0-000-000-----------------|C

--------------------------------------------------|F
--------------------------------------------------|A
-10101010101010109-9-9-9-9-9-9-9------------------|D
-x-x-x-x-x-x-x-x-x-x-x-x-x-x-x-x------------------|C
-8-8-8-8-8-8-8-8-7-7-7-7-7-7-7-7------------------|G
--------------------------------------------------|C


--------------------------------------------------|D
--------------------------------------------------|A
--------------------------------------------------|F
-14-15-14-15-12--14-------------------------------|C
--x--x--x--x--x---x-------------------------------|G
-12-13-12-13-10--12-0-0-0-000-000-----------------|C


--------------------------------------------------|D
--------------------------------------------------|A
--------------------------------------------------|F
-14-15-14-15-14--12-------------------------------|C
--x--x--x--x--x---x-------------------------------|G
-12-13-12-13-12--10-0-0-0-000-000-----------------|C


--------------------------------------------------|D
--------------------------------------------------|A
--------------------------------------------------|F
-14-15-14-15-12--14-------------------------------|C
--x--x--x--x--x---x-------------------------------|G
-12-13-12-13-10--12-0-0-0-000-000-----------------|C


--------------------------------------------------|D
--------------------------------------------------|A
-1010101010101010---12--10-7--7--7~---------------|F
-x-x-x-x-x-x-x-x----x---x--x--x--x~---------------|C
-8-8-8-8-8-8-8-8----10--8--9--5--5~---------------|G
---------------------------------0~---------------|C


Final Breakdown


----------------------------------------------------|D
----------------------------------------------------|A
----------------------------------------------------|F
------------------------------------------------|C--| 3x
-0000-0-0-0-0-0-0-0000------------------------------|G
-0000-0-0-0-0-0-0-0000------------------------------|C


-----------------------------------------------------|D
-----------------------------------------------------|A
------------1010-12----------------------------------|F
------------x--x-x------------------------------|C---|  3x
-0000-0-0-0-8--8-10----------------------------------|G
-0000-0-0-0------------------------------------------|C


Some of the breakdown zeros might bee wrong but just lissen to the song and you'll 
it out ! Goodluck , and please this is my first tab so " Bee Nice "
            
Hard to play? Try these video lessons and learn fast. | Correct




comments powered by Disqus
↑ Back to top | Tablatures and chords are parodies/interpretations of the original songs. You may use it for private study, scholarship, research or language learning purposes only