» » »

Haste The Day, O Come Emmanuel Tabs (ver.1)

Artists:  A B C D E F G H I J K L M N O P Q R S T U V W X Y Z # 

O Come Emmanuel Tabs (ver.1)

Haste The Day Tabs
 Rating:
4/5 (4 votes)
O Come Emmanuel lessons Tabs too difficult? Try these video lessons and learn fast
1
                Tuning: Standard (E A D G B e)

h - hammer on
/ - slide up

This is an awesome song just in time for the holidays. It's really easy to
play.
I'm sure it this song is up in the 97% correct tally. Listen to the song for rhythm.
I can't really figure out the solo but I have figured out the beginning of it.. If your 
good ear help me out on this one.

Whole Song Finger Picked

Intro x2

e|---------------------------------------------------------------------------|
B|--------0-----------------------------------------0------------------------|
G|------0---0---0------------0---------0----------0---0---0------------------|
D|----0-------0------------0---------0----------0-------0--------------------|
A|--------------------------------------------3------------------------------|
E|-0-----------------0h2---------2/3-----------------------------------------|


e|---------------------------------------------------------------------------|
B|--------0-----------------------------------------0------------------------|
G|------0---0---0------------0---------0----------0---0---0------------------|
D|----0-------0------------0---------0----------0-------0--------------------|
A|--0----------------0h2-----------------------------------------------------|
E|--------------------------------3----------0-------------------------------|


Verse x2
e|---------------------------------------------------------------------------|
B|--------0-----------------------------------------0------------------------|
G|------0---0---0------------0---------0----------0---0---0------------------|
D|----0-------0------------0---------0----------0-------0--------------------|
A|--------------------------------------------3------------------------------|
E|-0-----------------0h2---------2/3-----------------------------------------|

1. O come, O come, Emmanuel
2. That mourns in lonely exile here
3. O come, thou Day-Spring, come and cheer
4. Drive away the shades of night
5. O come, Desire of nations bind
6. Bid envy, strife, and quarrels cease;


Verse (Continued)
e|---------------------------------------------------------------------------|
B|--------0-----------------------------------------0------------------------|
G|------0---0---0------------0---------0----------0---0---0------------------|
D|----0-------0------------0---------0----------0-------0--------------------|
A|--0----------------0h2-----------------------------------------------------|
E|--------------------------------3----------0-------------------------------|

1. And ransom captive Israel
2. Until the son of God appear
3. Our spirits by thine advent here
4. And pierce the clouds and bring us light.
5. All peoples in one heart and mind;

6. Fill all the world with heaven’s peace


Chorus
e|---------------------------------------------------------------------------|
B|---------------------------0-------0------------------------------0--------|
G|--0----------0-----0-----0-------0---0-----------0------0-------0---0---0--|
D|--0--0-----0-----0-----0-------0-------0-------0------0-------0-------0----|
A|-----2---0-----2-------------2---------------0-----------------------------|
E|--------------------0------------------------------3-------0---------------|
Rejoice! Rejoice! Emmanuel, Shall come to thee, O Israel.


Lyrics
O come, O come, Emmanuel
And ransom captive Israel
That mourns in lonely exile here
Until the Son of God appear
Rejoice! Rejoice! Emmanuel
Shall come to thee, O Israel.
O come, Thou Day-Spring, come and cheer
Our spirits by Thine advent here
Drive away the shades of night
And pierce the clouds and bring us light.
Rejoice! Rejoice! Emmanuel
Shall come to thee, O Israel.
O come, Desire of nations bind.
All peoples in one heart and mind;
Bid envy, strife, and quarrels cease;
Fill all the world with heaven’s peace.

Rejoice! Rejoice! Emmanuel
Shall come to thee, O Israel.

[Help Me Out Please]
Solo
e|---------------------------------------------------------------------------|
B|--5/7--7/8--8/10-----------------------------------------------------------|
G|---------------------------------------------------------------------------|
D|---------------------------------------------------------------------------|
A|---------------------------------------------------------------------------|
E|---------------------------------------------------------------------------|
            
Submit corrections

comments powered by Disqus
↑ Back to top | Haste The Day Tabs for O Come Emmanuel. Lyrics for acoustic guitar and electric guitar. 1 Tablatures and chords are parodies/interpretations of the original songs. You may use it for private study, scholarship, research or language learning purposes only