>
 >
Meet Me Halfway

Meet Me Halfway Guitar Tabs

Haste The Day - Meet Me Halfway chords, tabs, tablatures, lyrics

Guitar lessons | Add/correct | Request | Top 50 tabs Artists:  A B C D E F G H I J K L M N O P Q R S T U V W X Y Z 0-9

Meet Me Halfway Guitar Tabs – Haste The Day

CD, Sheet music, Poster

Do you like Meet Me Halfway? Share with your friends now
Tabs
MEET ME HALFWAY (BLACK EYED PEAS COVER)
As recorded by Haste the Day
(From the 2010 Album ATTACK OF THE WOLF KING)

G#58 8 x x x x	Bb510 10 x x x x	G57 7 x x x x	C512 12 x x x x
G#5V8 8 8 x x x	Bb5(type 2)10 10 10 x x x	G5V7 7 7 x x x	C5(type 2)12 12 12 x x x

Gtr I (C G C F A D) - 'Dist. Rythmn'
Gtr II (C G C F A D) - 'Dist. Lead'
Gtr III (C G C F A D) - 'Untitled'
Gtr IV (C G C F A D) - 'Strings'
Gtr V (C G C F A D) - 'Keyboard'
Gtr VI (C G C F A D) - 'Clean Lead'
   Verse pt. 1
    Q=135
   4/4
    Gtr IV
    <           <          <          <
    W           W          W          W
||-----------|-----------|----------|-------||
||o----------|-----------|----------|------o||
||-----------|-----------|----------|-------||
||-----------|-----------|----------|-------||
||o-8--------|-10--------|-7--------|-8----o||
||-----------|-----------|----------|-------||


   Verse pt. 2
    G#5                Bb5
   4/4
    Gtrs I, II
    PM----------------------------------------|     PM---------------
    S S E S S Q  S S S  E S   S  S  S  S E  S  S  S E  S S  S  S  S
||--------------------------|---------------------------------------|
||o-------------------------|---------------------------------------|
||--------------------------|---------------------------------------|
||--------------------------|---------------------------------------|
||o-8-8---8-8----8-8---10---|---10-10-10---10-10-10---10---10-10-10-|
||--8-8---8-8----8-8---10---|---10-10-10---10-10-10---10---10-10-10-|


     G5                 C5
 ------------------------------------------------------------------|
   S S S E S S Q  S S S  S  S   E  S  S E  S  S S  S  S S  S  S  S  S
|-----------------------------|-------------------------------------------||
|-----------------------------|------------------------------------------o||
|-----------------------------|-------------------------------------------||
|-----------------------------|-------------------------------------------||
|-10-7-7---7-7----7-7---12-12-|---12-12---12-12---12-12---12-12-12-12----o||
|-10-7-7---7-7----7-7---12-12-|---12-12---12-12---12-12---12-12-12-12-----||


   Verse pt. 3
    G#5                     Bb5
    PM|                   PM------|
    S S H..               S  S  S  S H.
||----------------------|-------------------------|
||o---------------------|-------------------------|
||----------------------|-------------------------|
||----------------------|-------------------------|
||o-8-8-----------------|---10-10-10--------------|
||--8-8-----------------|---10-10-10--------------|
|
|   Gtr II
|               ~~~~                     ~~~
|   E   E   E   Q.   Q    E     E    E   Q.   E E
||------------/10----8--|---------------/8----6-5-|
||o-----5---6-----------|-------3----5------------|
||----------------------|-------------------------|
||----------------------|-------------------------|
||o---------------------|-------------------------|
||----------------------|-------------------------|


    G5                     C5
    PM-----------------------------------------------------------------|
  S S S E   S  S  Q  S S S  S  S   E  S  S E   S  S S  S  S S  S  S  S  S
|--------------------------------|-------------------------------------------||
|--------------------------------|------------------------------------------o||
|--------------------------------|-------------------------------------------||
|--------------------------------|-------------------------------------------||
|---7-7-----7--7-----7-7---12-12-|---12-12----12-12---12-12---12-12-12-12---o||
|---7-7-----7--7-----7-7---12-12-|---12-12----12-12---12-12---12-12-12-12----||
|
|              ~~~                         ~~
| E   E   E    Q.      E    E      E  E    H.
|-------------/8-------8----6----|-5--6----3---------------------------------||
|-----5---6----------------------|------------------------------------------o||
|--------------------------------|-------------------------------------------||
|--------------------------------|-------------------------------------------||
|--------------------------------|------------------------------------------o||
|--------------------------------|-------------------------------------------||


   Chorus
    G#5               Bb5
    E E E E E E E E    E  E  E  E  E  E  E  E
||------------------|-------------------------|
||o-----------------|-------------------------|
||------------------|-------------------------|
||--8-8-8-8-8-8-8-8-|-10-10-10-10-10-10-10-10-|
||o-8-8-8-8-8-8-8-8-|-10-10-10-10-10-10-10-10-|
||--8-8-8-8-8-8-8-8-|-10-10-10-10-10-10-10-10-|


  G5                C5
  E E E E E E E E    E  E  E  E  E  E  E  E
|-----------------|--------------------------||
|-----------------|-------------------------o||
|-----------------|--------------------------||
|-7-7-7-7-7-7-7-7-|-12-12-12-12-12-12-12-12--||
|-7-7-7-7-7-7-7-7-|-12-12-12-12-12-12-12-12-o||
|-7-7-7-7-7-7-7-7-|-12-12-12-12-12-12-12-12--||


   Post- Chorus
    G#5                 Bb5
    E E E  E  E E E E    E  E  E  E   E  E  E  E
||--------------------|--------------------------|
||o-------------------|--------------------------|
||--------------------|--------------------------|
||--8-8-8--8--8-8-8-8-|-10-10-10-10--10-10-10-10-|
||o-8-8-8--8--8-8-8-8-|-10-10-10-10--10-10-10-10-|
||--8-8-8--8--8-8-8-8-|-10-10-10-10--10-10-10-10-|
|
|   Gtr II
|          ~~~                    ~~~
|   E E E  Q.     Q      E  E  E  Q.        E  E
||--------10------8---|-----------8---------6--5-|
||o---5-6-------------|-----3--5-----------------|
||--------------------|--------------------------|
||--------------------|--------------------------|
||o-------------------|--------------------------|
||--------------------|--------------------------|


  G5                 C5
  E E E E  E E E E    E  E  E   E  E  E  E  E
|------------------|---------------------------||
|------------------|--------------------------o||
|------------------|---------------------------||
|-7-7-7-7--7-7-7-7-|-12-12-12--12-12-12-12-12--||
|-7-7-7-7--7-7-7-7-|-12-12-12--12-12-12-12-12-o||
|-7-7-7-7--7-7-7-7-|-12-12-12--12-12-12-12-12--||
|
|       ~~                  ~~~
| E E E Q.     E E    E  E  H.
|-------8------8-6-|--5--6--3------------------||
|---5-6------------|--------------------------o||
|------------------|---------------------------||
|------------------|---------------------------||
|------------------|--------------------------o||
|------------------|---------------------------||


 Verse pt. 1
  G#5
    PM
  S S H..          W          W          W
|---------------|-----------|----------|------|
|---------------|-----------|----------|------|
|---------------|-----------|----------|------|
|---------------|-----------|----------|------|
|-8-8-----------|-----------|----------|------|
|-8-8-----------|-----------|----------|------|
|
| Gtr IV
| W                W          W          W
|---------------|-----------|----------|------|
|---------------|-----------|----------|------|
|---------------|-----------|----------|------|
|---------------|-----------|----------|------|
|-8-------------|-10--------|-7--------|-8----|
|---------------|-----------|----------|------|


                                            G#5
                                            <
  W           W          W          H.      Q
|----------|-----------|----------|-----------|
|----------|-----------|----------|-----------|
|----------|-----------|----------|-----------|
|----------|-----------|----------|-----------|
|----------|-----------|----------|---------8-|
|----------|-----------|----------|---------8-|
|
| W           W          W          W
|----------|-----------|----------|-----------|
|----------|-----------|----------|-----------|
|----------|-----------|----------|-----------|
|----------|-----------|----------|-----------|
|-8--------|-10--------|-7--------|-8---------|
|----------|-----------|----------|-----------|


 Verse pt. 2
  G#5                Bb5
  PM|   PM--------------------------|      PM|      PM------|
  S S S S S S Q  E S  E S   S  S  S  S  S  S  S Q   S  S  S  S S
|-------------------------|--------------------------------------|
|-------------------------|--------------------------------------|
|-------------------------|--------------------------------------|
|-------------------------|--------------------------------------|
|-8-8-8-8-8-8----8---10---|---10-10-10-10-10-10----10-10-10-10---|
|-8-8-8-8-8-8----8---10---|---10-10-10-10-10-10----10-10-10-10---|


    G5                 C5
    PM|   PM------------------------|      PM-----------------------|
  S S S S S S S Q  E S  S  S   E  S  S  S  S  S  S E  S  S  S  S  S  S
|----------------------------|-------------------------------------------|
|----------------------------|-------------------------------------------|
|----------------------------|-------------------------------------------|
|----------------------------|-------------------------------------------|
|---7-7-7-7-7-7----7---12-12-|---12-12-12-12-12-12---12-12-12-12-12-12---|
|---7-7-7-7-7-7----7---12-12-|---12-12-12-12-12-12---12-12-12-12-12-12---|


  G#5                  Bb5
  PM|   PM----------------------------|      PM|       PM------|
  S S S S S S  Q   E S  E S   S  S  S  S  S  S  S  Q   S  S  S  S S
|---------------------------|---------------------------------------|
|---------------------------|---------------------------------------|
|---------------------------|---------------------------------------|
|---------------------------|---------------------------------------|
|-8-8-8-8-8-8------8---10---|---10-10-10-10-10-10-----10-10-10-10---|
|-8-8-8-8-8-8------8---10---|---10-10-10-10-10-10-----10-10-10-10---|
|
| Gtr II
|              ~~~                              ~~~
| E   E   E    Q.    Q        E     E     E     Q.        E     E
|-------------10-----8------|-------------------8---------6-----5---|
|-----5---6-----------------|-------3-----5-------------------------|
|---------------------------|---------------------------------------|
|---------------------------|---------------------------------------|
|---------------------------|---------------------------------------|
|---------------------------|---------------------------------------|


    G5                    C5                             N.C.
    PM|   PM---------------------------|       PM------------------|
  S S S S S S S  Q  E   S  S  S   E  S  S  S   S  S  S E S S S S S S
|-------------------------------|-------------------------------------|
|-------------------------------|-------------------------------------|
|-------------------------------|-------------------------------------|
|-------------------------------|-------------------------------------|
|---7-7-7-7-7-7-----7-----12-12-|---12-12-12--12-12-12---x-x-x-x-x-x--|
|---7-7-7-7-7-7-----7-----12-12-|---12-12-12--12-12-12---x-x-x-x-x-x--|
|
|             ~~                           ~~~
| E   E   E   Q.      E    E      E  E     H.
|-------------8-------8----6----|-5--6-----3--------------------------|
|-----5---6---------------------|-------------------------------------|
|-------------------------------|-------------------------------------|
|-------------------------------|-------------------------------------|
|-------------------------------|-------------------------------------|
|-------------------------------|-------------------------------------|


 Chorus
  G#5               Bb5
  E E E E E E E E    E  E  E  E  E  E  E  E
|-----------------|-------------------------|
|-----------------|-------------------------|
|-----------------|-------------------------|
|-8-8-8-8-8-8-8-8-|-10-10-10-10-10-10-10-10-|
|-8-8-8-8-8-8-8-8-|-10-10-10-10-10-10-10-10-|
|-8-8-8-8-8-8-8-8-|-10-10-10-10-10-10-10-10-|


  G5                C5
  E E E E E E E E    E  E  E  E  E  E  E  E
|-----------------|--------------------------|
|-----------------|--------------------------|
|-----------------|--------------------------|
|-7-7-7-7-7-7-7-7-|-12-12-12-12-12-12-12-12--|
|-7-7-7-7-7-7-7-7-|-12-12-12-12-12-12-12-12--|
|-7-7-7-7-7-7-7-7-|-12-12-12-12-12-12-12-12--|


  G#5               Bb5
  E E E E E E E E    E  E  E  E  E  E  E  E
|-----------------|-------------------------|
|-----------------|-------------------------|
|-----------------|-------------------------|
|-8-8-8-8-8-8-8-8-|-10-10-10-10-10-10-10-10-|
|-8-8-8-8-8-8-8-8-|-10-10-10-10-10-10-10-10-|
|-8-8-8-8-8-8-8-8-|-10-10-10-10-10-10-10-10-|


  G5                C5                N.C.
                                      TPTPTPTP
  E E E E E E E E    E  E  E  E  E  E S S S S
|-----------------|----------------------------|
|-----------------|----------------------------|
|-----------------|----------------------------|
|-7-7-7-7-7-7-7-7-|-12-12-12-12-12-12-xSxSxSx--|
|-7-7-7-7-7-7-7-7-|-12-12-12-12-12-12-xSxSxSx--|
|-7-7-7-7-7-7-7-7-|-12-12-12-12-12-12----------|


   Post- Chorus
    G#5                  Bb5
    E E E   E  E E E E    E  E  E  E   E  E  E  E
||---------------------|--------------------------|
||o--------------------|--------------------------|
||---------------------|--------------------------|
||--8-8-8---8--8-8-8-8-|-10-10-10-10--10-10-10-10-|
||o-8-8-8---8--8-8-8-8-|-10-10-10-10--10-10-10-10-|
||--8-8-8---8--8-8-8-8-|-10-10-10-10--10-10-10-10-|
|
|   Gtr II
|           ~~~~                   ~~~
|   E E E   Q.     Q      E  E  E  Q.        E  E
||--------/10------8---|----------/8---------6--5-|
||o---5-6--------------|-----3--5-----------------|
||---------------------|--------------------------|
||---------------------|--------------------------|
||o--------------------|--------------------------|
||---------------------|--------------------------|


  G5                  C5
  E E E  E  E E E E    E  E  E   E  E  E  E  E  4x
|-------------------|---------------------------||
|-------------------|--------------------------o||
|-------------------|---------------------------||
|-7-7-7--7--7-7-7-7-|-12-12-12--12-12-12-12-12--||
|-7-7-7--7--7-7-7-7-|-12-12-12--12-12-12-12-12-o||
|-7-7-7--7--7-7-7-7-|-12-12-12--12-12-12-12-12--||
|
|        ~~~                 ~~~
| E E E  Q.     E E    E  E  H.                 4x
|-------/8------8-6-|--5--6--3------------------||
|---5-6-------------|--------------------------o||
|-------------------|---------------------------||
|-------------------|---------------------------||
|-------------------|--------------------------o||
|-------------------|---------------------------||


 Bridge pt. 1
  Wx8
|--------|
|--------|
|--------|
|--------|
|--------|
|--------|


 Bridge pt. 2
  N.C.
  Gtr I
  W                 W                 W                 W
|-----------------|-----------------|-----------------|-------------------|
|-----------------|-----------------|-----------------|-------------------|
|-----------------|-----------------|-----------------|-------------------|
|-----------------|-----------------|-----------------|-------------------|
|-----------------|-----------------|-----------------|-------------------|
|-----------------|-----------------|-----------------|-------------------|
|
| Gtr II
| E E E E E E E E   E E E E E E E E   E E E E E E E E   E  E E E E E E E
|-6-5-----5-8-6-5-|-3-5-----5-8-6-5-|-6-5-----5-8-6-5-|-3-10-----5-8-6-5--|
|-----3-5---------|-----3-5---------|-----3-5---------|------3-5----------|
|-----------------|-----------------|-----------------|-------------------|
|-----------------|-----------------|-----------------|-------------------|
|-----------------|-----------------|-----------------|-------------------|
|-----------------|-----------------|-----------------|-------------------|


  N.C.
  W                 W                 W                 W
|-----------------|-----------------|-----------------|-------------------|
|-----------------|-----------------|-----------------|-------------------|
|-----------------|-----------------|-----------------|-------------------|
|-----------------|-----------------|-----------------|-------------------|
|-----------------|-----------------|-----------------|-------------------|
|-----------------|-----------------|-----------------|-------------------|
|
| E E E E E E E E   E E E E E E E E   E E E E E E E E   E  E E E E E E E
|-6-5-----5-8-6-5-|-3-5-----5-8-6-5-|-6-5-----5-8-6-5-|-3-10-----5-8-6-5--|
|-----3-5---------|-----3-5---------|-----3-5---------|------3-5----------|
|-----------------|-----------------|-----------------|-------------------|
|-----------------|-----------------|-----------------|-------------------|
|-----------------|-----------------|-----------------|-------------------|
|-----------------|-----------------|-----------------|-------------------|


 Alternative Chorus
  N.C.              N.C.
  Gtr V
  E E E E E E E E   E E E E E E E E
|-----------------|-----------------|
|-----------------|-----------------|
|-----------------|-----------------|
|-----------------|-----------------|
|-----------------|-----------------|
|-5-5-5-5-5-5-5-5-|-7-7-7-7-7-7-7-7-|
|
| Gtr II
| W                 W
|-----------------|-----------------|
|-----------------|-----------------|
|-----------------|-----------------|
|-----------------|-----------------|
|-----------------|-----------------|
|-----------------|-----------------|


  N.C.              N.C.
  E E E E E E E E    E  E  E  E  E  E  E  E
|-----------------|--------------------------|
|-----------------|--------------------------|
|-----------------|--------------------------|
|-----------------|--------------------------|
|-----------------|--------------------------|
|-8-8-8-8-8-8-8-8-|-10-10-10-10-10-10-10-10--|
|
| W                  W
|-----------------|--------------------------|
|-----------------|--------------------------|
|-----------------|--------------------------|
|-----------------|--------------------------|
|-----------------|--------------------------|
|-----------------|--------------------------|


  N.C.              N.C.
  E E E E E E E E   E E E E E E E E
|-----------------|-----------------|
|-----------------|-----------------|
|-----------------|-----------------|
|-----------------|-----------------|
|-----------------|-----------------|
|-5-5-5-5-5-5-5-5-|-7-7-7-7-7-7-7-7-|
|
| E E E E E E E E   E E E E E E E E
|-6-5-----5-8-6-5-|-6-5-----5-8-6-5-|
|-----3-5---------|-----3-5---------|
|-----------------|-----------------|
|-----------------|-----------------|
|-----------------|-----------------|
|-----------------|-----------------|


  N.C.              N.C.
  E E E E E E E E    E  E  E  E  E  E  E  E
|-----------------|--------------------------|
|-----------------|--------------------------|
|-----------------|--------------------------|
|-----------------|--------------------------|
|-----------------|--------------------------|
|-8-8-8-8-8-8-8-8-|-10-10-10-10-10-10-10-10--|
|
| E E E E E E E E    E  E  E  E  E  E  E  E
|-6-5-----5-8-6-5-|--3-10--------5--8--6--5--|
|-----3-5---------|--------3--5--------------|
|-----------------|--------------------------|
|-----------------|--------------------------|
|-----------------|--------------------------|
|-----------------|--------------------------|


 Out-Chorus
  G5                       G#5 Bb5
  Gtr I
   Q   H.        H..       E    Q   H    Q    W
|-10\----------|-------------|--------------|------|
|--------------|-------------|--------------|------|
|--------------|-------------|--------------|------|
|--------------|-----------8-|-10\----------|------|
|--------------|-----------8-|-10\----------|------|
|--------------|-----------8-|-10\----------|------|
|
|  Q   H.        H..       E    Q   H    Q    W
|--------------|-------------|--------------|------|
|--------------|-------------|--------------|------|
|--------------|-------------|--------------|------|
|--7\----------|-----------8-|-10\----------|------|
|--7\----------|-----------8-|-10\----------|------|
|--7\----------|-----------8-|-10\----------|------|


  G#5               Bb5
  E E E E E E E E    E  E  E  E  E  E  E  E
|-----------------|-------------------------|
|-----------------|-------------------------|
|-----------------|-------------------------|
|-8-8-8-8-8-8-8-8-|-10-10-10-10-10-10-10-10-|
|-8-8-8-8-8-8-8-8-|-10-10-10-10-10-10-10-10-|
|-8-8-8-8-8-8-8-8-|-10-10-10-10-10-10-10-10-|


  G5                C5
  E E E E E E E E    E  E  E  E  E  E  E  E
|-----------------|--------------------------|
|-----------------|--------------------------|
|-----------------|--------------------------|
|-7-7-7-7-7-7-7-7-|-12-12-12-12-12-12-12-12--|
|-7-7-7-7-7-7-7-7-|-12-12-12-12-12-12-12-12--|
|-7-7-7-7-7-7-7-7-|-12-12-12-12-12-12-12-12--|


    G#5                  Bb5
    E E E   E  E E E E    E  E  E  E   E  E  E  E
||---------------------|--------------------------|
||o--------------------|--------------------------|
||---------------------|--------------------------|
||--8-8-8---8--8-8-8-8-|-10-10-10-10--10-10-10-10-|
||o-8-8-8---8--8-8-8-8-|-10-10-10-10--10-10-10-10-|
||--8-8-8---8--8-8-8-8-|-10-10-10-10--10-10-10-10-|
|
|   Gtr II
|           ~~~~                   ~~~
|   E E E   Q.     Q      E  E  E  Q.        E  E
||--------/10------8---|----------/8---------6--5-|
||o---5-6--------------|-----3--5-----------------|
||---------------------|--------------------------|
||---------------------|--------------------------|
||o--------------------|--------------------------|
||---------------------|--------------------------|


  G5                  C5
  E E E  E  E E E E    E  E  E   E  E  E  E  E  4x
|-------------------|---------------------------||
|-------------------|--------------------------o||
|-------------------|---------------------------||
|-7-7-7--7--7-7-7-7-|-12-12-12--12-12-12-12-12--||
|-7-7-7--7--7-7-7-7-|-12-12-12--12-12-12-12-12-o||
|-7-7-7--7--7-7-7-7-|-12-12-12--12-12-12-12-12--||
|
|        ~~~                 ~~~
| E E E  Q.     E E    E  E  H.                 4x
|-------/8------8-6-|--5--6--3------------------||
|---5-6-------------|--------------------------o||
|-------------------|---------------------------||
|-------------------|---------------------------||
|-------------------|--------------------------o||
|-------------------|---------------------------||


 Outro
  G#5                  Bb5
  PM---------------------------------------------|     PM---------------
  S S E S S  Q   S S S  E   S   S  S  S  S E  S   S  S E  S S  S  S  S
|-----------------------------|----------------------------------------|
|-----------------------------|----------------------------------------|
|-----------------------------|----------------------------------------|
|-----------------------------|----------------------------------------|
|-8-8---8-8------8-8---10-----|---10-10-10---10--10-10---10---10-10-10-|
|-8-8---8-8------8-8---10-----|---10-10-10---10--10-10---10---10-10-10-|
|
| Gtr VI
| E   E E    Q.      E    E     E     E    E  Q.            E     E
|-----------10-------8----5---|---------------8-------------6-----5----|
|-6---5-6---------------------|-6-----3----5---------------------------|
|-----------------------------|----------------------------------------|
|-----------------------------|----------------------------------------|
|-----------------------------|----------------------------------------|
|-----------------------------|----------------------------------------|


     G5                    G#5
 -----------------------------------------------------------|
   S S S E   S S  Q  S S S S S   E S S E S  S S S S S S S S S
|------------------------------|------------------------------|
|------------------------------|------------------------------|
|------------------------------|------------------------------|
|------------------------------|------------------------------|
|-10-7-7-----7-7-----7-7---8-8-|---8-8---8--8---8-8---8-8-8-8-|
|-10-7-7-----7-7-----7-7---8-8-|---8-8---8--8---8-8---8-8-8-8-|
|
|  E   E   E   Q.      E   E     E E   E Q.           E   E
|--------------8-------8---6---|---------8------------6---5---|
|--6---5---6-------------------|-6-5---6----------------------|
|------------------------------|------------------------------|
|------------------------------|------------------------------|
|------------------------------|------------------------------|
|------------------------------|------------------------------|


  G#5                  Bb5
  PM-------------------------------------------|     PM---------------
  S S E S S  Q   S S S  E S   S  S  S  S E  S   S  S E  S S  S  S  S
|---------------------------|----------------------------------------|
|---------------------------|----------------------------------------|
|---------------------------|----------------------------------------|
|---------------------------|----------------------------------------|
|-8-8---8-8------8-8---10---|---10-10-10---10--10-10---10---10-10-10-|
|-8-8---8-8------8-8---10---|---10-10-10---10--10-10---10---10-10-10-|
|
| E   E E    Q.      Q        E     E    E  Q.            E     E
|-----------10-------8------|---------------8-------------6-----5----|
|-6---5-6-------------------|-6-----3----5---------------------------|
|---------------------------|----------------------------------------|
|---------------------------|----------------------------------------|
|---------------------------|----------------------------------------|
|---------------------------|----------------------------------------|


     G5                         G#5
 --------|   PM|    PM  PM|   PM--|       PM|   PM--------------------|
   S S S S S S S  S S S S S S S S S   S S S S S S S S S S S S S S  S  S
|-----------------------------------|-------------------------------------|
|-----------------------------------|-------------------------------------|
|-----------------------------------|-------------------------------------|
|-----------------------------------|-------------------------------------|
|-10-7-7-7-7-7-7--7-7-7-7-7-7-7-8-8-|-8-8-8-8-8-8-8-8-8-8-8-8-8-8--8--8---|
|-10-7-7-7-7-7-7--7-7-7-7-7-7-7-8-8-|-8-8-8-8-8-8-8-8-8-8-8-8-8-8--8--8---|
|
|  E   E   E   Q.           E   E     E   E   E   H               +E
|--------------8------------8---6---|-------------8---------------(8)-----|
|--6---5---6------------------------|-6---5---6---------------------------|
|-----------------------------------|-------------------------------------|
|-----------------------------------|-------------------------------------|
|-----------------------------------|-------------------------------------|
|-----------------------------------|-------------------------------------|


  G#5
  >
  W          +W           +W           +W
|----------|------------|------------|--------|
|----------|------------|------------|--------|
|----------|------------|------------|--------|
|-8--------|-(8)--------|-(8)--------|-(8)----|
|-8--------|-(8)--------|-(8)--------|-(8)----|
|-8--------|-(8)--------|-(8)--------|-(8)----|
|
| Gtr VI
| >
| W          +W           +W           +W
|-8--------|-(8)--------|-(8)--------|-(8)----|
|----------|------------|------------|--------|
|----------|------------|------------|--------|
|----------|------------|------------|--------|
|----------|------------|------------|--------|
|----------|------------|------------|--------|
|
| Gtr IV
| W           W            W            W
|----------|------------|------------|--------|
|----------|------------|------------|--------|
|----------|------------|------------|--------|
|----------|------------|------------|--------|
|-8--------|-10---------|--7---------|--8-----|
|----------|------------|------------|--------|


  +W                  +W                 +W                 +W
|-------------------|------------------|------------------|-------------------*|
|-------------------|------------------|------------------|-------------------*|
|-------------------|------------------|------------------|-------------------*|
|-(8)---------------|-(8)--------------|-(8)--------------|-(8)---------------*|
|-(8)---------------|-(8)--------------|-(8)--------------|-(8)---------------*|
|-(8)---------------|-(8)--------------|-(8)--------------|-(8)---------------*|
|
| +W                  +W                 +W                 +W
|-(8)---------------|-(8)--------------|-(8)--------------|-(8)---------------*|
|-------------------|------------------|------------------|-------------------*|
|-------------------|------------------|------------------|-------------------*|
|-------------------|------------------|------------------|-------------------*|
|-------------------|------------------|------------------|-------------------*|
|-------------------|------------------|------------------|-------------------*|
|
|  E  E E  Q.   E E    E  E E Q.   E E    E  E E Q.   E E    E  E E Q.   E E
|---------10----8-5-|---------8----6-5-|---------8----8-6-|---------8----6-5--*|
|--6--5-6-----------|--6--3-5----------|--6--5-6----------|--6--5-6-----------*|
|-------------------|------------------|------------------|-------------------*|
|-------------------|------------------|------------------|-------------------*|
|-------------------|------------------|------------------|-------------------*|
|-------------------|------------------|------------------|-------------------*|


 

Duration Legend
---------------
W - whole; H - half; Q - quarter; E - 8th; S - 16th; T - 32nd; X - 64th; a - acciaccatura
+ - note tied to previous; . - note dotted; .. - note double dotted
Uncapitalized letters represent notes that are staccato (1/2 duration)
Irregular groupings are notated above the duration line
Duration letters will always appear directly above the note/fret number it represents the
duration for.  Duration letters with no fret number below them represent rests.  Multi-
bar rests are notated in the form Wxn, where n is the number of bars to rest for.  Low
melody durations appear below the staff

Tablature Legend
----------------
 h   - hammer-on
 p   - pull-off
 b   - bend
 pb  - pre-bend
 r   - bend release (if no number after the r, then release immediately)
 /\  - slide into or out of (from/to "nowhere")
 s   - legato slide
 S   - shift slide
 - natural harmonic
[n]  - artificial harmonic
n(n) - tapped harmonic
 ~   - vibrato
 tr  - trill
 T   - tap
 TP  - trem. picking
 PM  - palm muting
\n/  - tremolo bar dip; n = amount to dip
 \n  - tremolo bar down
 n/  - tremolo bar up
/n\  - tremolo bar inverted dip
 =   - hold bend; also acts as connecting device for hammers/pulls
 <> - volume swell (louder/softer)
 x   - on rhythm slash represents muted slash
 o   - on rhythm slash represents single note slash

Misc Legend
-----------
 |  - bar
||  - double bar
||o - repeat start
o|| - repeat end
*|  - double bar (ending)
 :  - bar (freetime)
 $  - Segno
 &  - Coda
Tempo markers -  = BPM(8/16=s8/s16), where s8 = swing 8ths, s16 = swing 16ths





Comments


Popular Haste The Day tabs & chords
Blue 42 Bass Tabs
Breaking My Own Heart Bass Tabs
Long Way Down 2 Bass Tabs
Minor Prophets Bass Tabs
Travesty Bass Tabs
For A Lifetime 1 Tabs
Janet's Planet Tabs
Labyrinth Tabs
Long Way Down Tabs
Song Of Faith 1 Tabs


Song lyrics



↑ Back to top | Tablatures and chords are parodies/interpretations of the original songs. You may use it for private study, scholarship, research or language learning purposes only
© 2014 AZChords.com Contact us | Privacy policy | DMCA | Add/correct tabs | Request tabs | Top 50 tabs