» » »

Haste The Day, Dogs Like Vultures Tabs (ver.1)

Artists:  A B C D E F G H I J K L M N O P Q R S T U V W X Y Z # 

Dogs Like Vultures Tabs (ver.1)

Haste The Day Tabs
Rating:
0/5 (0 votes)
Dogs Like Vultures lessons Tabs too difficult? Try these video lessons and learn fast
                (Intro)
Guitar 1

Legend
L - tied note
x - dead note
h - hammer on/pull off
b - bend
s - slide
~ - vibrato
g - ghost note
> - accentuated note
t - trill
M - palm mute
. - staccato
P - popping (bass)
S - slapping (bass)
+ - tapping
W - wide vibrato
< - fade in
w - whammy bar
= - tremolo picking
v - brush up
^ - brush down
V - pick stroke up
n - pick stroke down

     Let ring ---------------------------------------------
D |----------------------------|----------------------------|
A |-----10----10----10----10---|-----10----10----10----10---|
F |--13----13----13----13------|--13----13----13----13------|
C |----------------------------|----------------------------|
G |----------------------------|----------------------------|
C |----------------------------|----------------------------|

 no let ring --------------    Let ring ------------------
-----9h-12h16h12h9----------||---------------------------|
--10----------------10------||----10----10----10----10---|
-----------------------11---||o13----13----13----13------|
----------------------------||o--------------------------|
----------------------------||---------------------------|
----------------------------||---------------------------|

Let ring ----------    Let ring -------------------------
-----------12---------------|-----------9----------------|
-----10-------------10------|-----10----------10----10---|
--13----13-------13----11L--|--11----11----------11------|
----------------------------|----------------------------|
----------------------------|----------------------------|
----------------------------|----------------------------|

let ring -------------        Let ring ------------------
-----------9----------------|----------------------------|
-----10----------10----10---|-----10----10----10----10---|
--11----11----------11------|--13----13----13----13------|
----------------------------|----------------------------|
----------------------------|----------------------------|
----------------------------|----------------------------|

let ring------------------------------------------------
-----------12---------------|-----------9----------------|
-----10-------------10------|-----10----------10----10---|
--13----13-------13----11L--|--11----11----------11------|
----------------------------|----------------------------|
----------------------------|----------------------------|
----------------------------|----------------------------|

no ring--------------------
-----9h-12h16h12h9---------||----------------------------||
--10----------------10-----||----------------------------||
-----------------------11-o||----------------------------||
--------------------------o||----------------------------||
---------------------------||----------------------------||
---------------------------||----------------------------||
______________________________________________________________
_______________________________________________________________
______________________________________________________________
______________________________________________________________

Guitar 2

Legend
L - tied note
x - dead note
h - hammer on/pull off
b - bend
s - slide
~ - vibrato
g - ghost note
> - accentuated note
t - trill
M - palm mute
. - staccato
P - popping (bass)
S - slapping (bass)
+ - tapping
W - wide vibrato
< - fade in
w - whammy bar
= - tremolo picking
v - brush up
^ - brush down
V - pick stroke up
n - pick stroke down


D |----------------|----------------|----------------||
A |----------------|----------------|----------------||
F |----------------|----------------|----------------||
C |----------------|----------------|----------------||
G |----------------|----------------|----------------||
C |----------------|----------------|----------------||


---------------------------------------------------|
---------------------------------------------------|
o--------------------------------------------------|
o--------------------------------------------------|
-0-----------0-----0-----------0-----------0--0----|
-0-----------0-----0-----------0-----------0--0----|


----------------------------------------------------|
----------------------------------------------------|
----------------------------------------------------|
----------------------------------------------------|
--0-----------0--0--0-----------0-------------------|
--0-----------0--0--0-----------0-------------------|


----------------------------------------------------|
----------------------------------------------------|
----------------------------------------------------|
----------------------------------------------------|
--0-----------0--0--0-----------0--0--0-----0--0----|
--0-----------0--0--0-----------0--0--0-----0--0----|


----------------------------------------------------|
----------------------------------------------------|
----------------------------------------------------|
----------------------------------------------------|
--0-----------0--0--0-----------0-----------0--0----|
--0-----------0--0--0-----------0-----------0--0----|


----------------------------------------------------|
----------------------------------------------------|
----------------------------------------------------|
----------------------------------------------------|
--0-----------0-----0-----------0-----------0--0----|
--0-----------0-----0-----------0-----------0--0----|


----------------------------------------------------|
----------------------------------------------------|
----------------------------------------------------|
----------------------------------------------------|
--0-----------0--0--0-----------0-------------------|
--0-----------0--0--0-----------0-------------------|


----------------------------------------------------|
----------------------------------------------------|
----------------------------------------------------|
----------------------------------------------------|
--0-----------0--0--0-----------0--0--0-----0--0----|
--0-----------0--0--0-----------0--0--0-----0--0----|


---------------------------------------------------||----------------||
---------------------------------------------------||----------------||
--------------------------------------------------o||----------------||
--------------------------------------------------o||----------------||
--0-----------0--0--0-----------0-----------0--0---||----------------||
--0-----------0--0--0-----------0-----------0--0---||----------------||
ENJOY!
            
Submit corrections

comments powered by Disqus
↑ Back to top | Haste The Day Tabs for Dogs Like Vultures. Lyrics for acoustic guitar and electric guitar. Tablatures and chords are parodies/interpretations of the original songs. You may use it for private study, scholarship, research or language learning purposes only