>
 >
Dogs Like Vultures

Dogs Like Vultures Guitar Tabs

Haste The Day - Dogs Like Vultures chords, tabs, tablatures, lyrics

Guitar lessons | Add/correct | Request | Top 50 tabs Artists:  A B C D E F G H I J K L M N O P Q R S T U V W X Y Z 0-9

Dogs Like Vultures Guitar Tabs – Haste The Day

CD, Sheet music, Poster

Do you like Dogs Like Vultures? Share with your friends now
Tabs
Lead Guitar
Drop C

Legend
L - tied note
x - dead note
h - hammer on/pull off
b - bend
s - slide
~ - vibrato
g - ghost note
> - accentuated note
t - trill
M - palm mute
. - staccato
P - popping (bass)
S - slapping (bass)
+ - tapping
W - wide vibrato
< - fade in
w - whammy bar
= - tremolo picking
v - brush up
^ - brush down
V - pick stroke up
n - pick stroke down

Intro
D |----------------------------|----------------------------|
A |--------------10----10------|--10----10----10----10------|
F |-----------------13----13---|-----13----13----13----13---|
C |----------------------------|----------------------------|
G |----------------------------|----------------------------|
C |----------------------------|----------------------------|


----------------------------|-----9h-12-16h12h9----------|
--10----10----10----10------|--10----------------10------|
-----13----13----13----13L--|--13-------------------11---|
----------------------------|----------------------------|
----------------------------|----------------------------|
----------------------------|----------------------------|


--------------------------------------------------------------------------------|
-----------------10----------------------10----------------------10-------------|
--11-13----------------------13----------------------13----------------------13-|
--------------------------------------------------------------------------------|
--------------------------------------------------------------------------------|
--------------------------------------------------------------------------------|


-----------------------|-----------12---------------|
---------10------------|-----10-------------10------|
-----------------------|--13----13-------13----11L--|
-----------------------|----------------------------|
-----------------------|----------------------------|
-----------------------|----------------------------|


-----------9----------------|-----------9----------------|
-----10----------10----10---|-----10----------10----10---|
--11----11----------11------|--11----11----------11------|
----------------------------|----------------------------|
----------------------------|----------------------------|
----------------------------|----------------------------|


--------------------------------------------------------------------------------|
-----------------10----------------------10----------------------10-------------|
--11s13----------------------13----------------------13----------------------13-|
--------------------------------------------------------------------------------|
--------------------------------------------------------------------------------|
--------------------------------------------------------------------------------|


-----------------------|-----------12---------------|
---------10------------|-----10-------------10------|
-----------------------|--13----13-------13----11L--|
-----------------------|----------------------------|
-----------------------|----------------------------|
-----------------------|----------------------------|


-----------9----------------|-----9h-12-16h12h9----------|
-----10----------10----10---|--------------------10------|
--11----11----------11------|--11-------------------11---|
----------------------------|----------------------------|
----------------------------|----------------------------|
----------------------------|----------------------------|


--------------------------------------------------------------------------------|
-----------------10----------------------10----------------------10-------------|
--11s13----------------------13----------------------13----------------------13-|
--------------------------------------------------------------------------------|
--------------------------------------------------------------------------------|
--------------------------------------------------------------------------------|


-----------------------|-----------12---------------|
---------10------------|-----10-------------10------|
-----------------------|--13----13-------13----11L--|
-----------------------|----------------------------|
-----------------------|----------------------------|
-----------------------|----------------------------|


-----------9----------------|-----------9----------------|
-----10----------10----10---|-----10----------10----10---|
--11----11----------11------|--11----11----------11------|
----------------------------|----------------------------|
----------------------------|----------------------------|
----------------------------|----------------------------|


--------------------------------------------------------------------------------|
-----------------10----------------------10----------------------10-------------|
--11s13----------------------13----------------------13----------------------13-|
--------------------------------------------------------------------------------|
--------------------------------------------------------------------------------|
--------------------------------------------------------------------------------|


-----------------------|-----------12---------------|
---------10------------|-----10-------------10------|
-----------------------|--13----13-------13----11L--|
-----------------------|----------------------------|
-----------------------|----------------------------|
-----------------------|----------------------------|

                                                          Verse
-----------9----------------|-----9h-12-16h12h9----------|-------|-------|
-----10----------10----10---|--------------------10------|-------|-------|
--11----11----------11------|--11-------------------11---|-------|-------|
----------------------------|----------------------------|-------|-------|
----------------------------|----------------------------|-------|-------|
----------------------------|----------------------------|-------|-------|


-------|-------|-------|-------|-------|----------------------------|
-------|-------|-------|-------|-------|--------------10-10-10-10---|
-------|-------|-------|-------|-------|--------------13-13-13-13---|
-------|-------|-------|-------|-------|----------------------------|
-------|-------|-------|-------|-------|----------------------------|
-------|-------|-------|-------|-------|----------------------------|

Chorus
--------------12------------|--------12------------------|
-----------------14---------|-----------14---------------|
--11-14-13-11-------11-14---|--13-11-------11-14-13-11---|
----------------------------|----------------------------|
----------------------------|----------------------------|
----------------------------|----------------------------|


--------------12------------|--------12------------------|
-----------------14---------|-----------14---------------|
-----14-13-------------14---|--13-------------13-11-13---|
--14-------14-------14------|-----14-------14------------|
----------------------------|----------------------------|
----------------------------|----------------------------|


--------------12------------|--------12------------------|
-----------------14---------|-----------14---------------|
--11-14-13-11-------11-14---|--13-11-------11-14-13-11---|
----------------------------|----------------------------|
----------------------------|----------------------------|
----------------------------|----------------------------|


--------------12------------|--------12------------------|
-----------------14---------|-----------14---------------|
-----14-13-------------14---|--13-------------13-13-13---|
--14-------14-------14------|-----14-------14M-----------|
----------------------------|----------------------------|
----------------------------|----------------------------|


--------------12------------|--------12------------------|
-----------------14---------|-----------14---------------|
--11-14-13-11-------11-14---|--13-11-------11-14-13-11---|
----------------------------|----------------------------|
----------------------------|----------------------------|
----------------------------|----------------------------|


--------------12------------|--------12------------------|
-----------------14---------|-----------14---------------|
-----14-13-------------14---|--13-------------13-11-13---|
--14-------14-------14------|-----14-------14------------|
----------------------------|----------------------------|
----------------------------|----------------------------|


--------------12------------|--------12------------------|
-----------------14---------|-----------14---------------|
--11-14-13-11-------11-14---|--13-11-------11-14-13-11---|
----------------------------|----------------------------|
----------------------------|----------------------------|
----------------------------|----------------------------|


--------------12------------|--------12------------------|
-----------------14---------|-----------14---------------|
-----14-13-------------14---|--13-------------13-13-13---|
--14-------14-------14------|-----14-------14M-----------|
----------------------------|----------------------------|
----------------------------|----------------------------|

Interlude
--5h-9h-5h-0--5h-0-----------------------------0----|
--------------------0h-5h-7h-0--5h-0--7L----7~------|
----------------------------------------------------|
----------------------------------------------------|
----------------------------------------------------|
----------------------------------------------------|


--5h-9h-5h-0--5h-0--0h-4h-5h-4h-5h-4--0h----2-------|
----------------------------------------------------|
----------------------------------------------------|
----------------------------------------------------|
----------------------------------------------------|
----------------------------------------------------|


--5h-9h-5h-0--5h-0-----------------------------0----|
--------------------0h-5h-7h-0--5h-0--7L----7~------|
----------------------------------------------------|
----------------------------------------------------|
----------------------------------------------------|
----------------------------------------------------|


--5h-9h-5h-0--5h-0--0.------------------------------|
----------------------------------------------------|
----------------------------------------------------|
----------------------------------------------------|
----------------------------------------------------|
----------------------------------------------------|


Verse Here just add this little part around the 8th tab break


--------------------------5h-9h-5h-0--5h-0----------|
--------------------------------------------0h-5----|
----------------------------------------------------|
----------------------------------------------------|
----------------------------------------------------|
----------------------------------------------------|



Chorus here








Bridge
|-------|
|-------|
|-------|
|-------|
|-------|
|-------|


-------|-------|-------|-------|-------|-------|-------|-------|-------|-------|
-------|-------|-------|-------|-------|-------|-------|-------|-------|-------|
-------|-------|-------|-------|-------|-------|-------|-------|-------|-------|
-------|-------|-------|-------|-------|-------|-------|-------|-------|-------|
-------|-------|-------|-------|-------|-------|-------|-------|-------|-------|
-------|-------|-------|-------|-------|-------|-------|-------|-------|-------|


-------|-------|-------|-------|-------|-------|
-------|-------|-------|-------|-------|-------|
-------|-------|-------|-------|-------|-------|
-------|-------|-------|-------|-------|-------|
-------|-------|-------|-------|-------|-------|
-------|-------|-------|-------|-------|-------|

Chorus



Outro
|----------|
|----------|
|----------|
|----------|
|----------|
|----------|


--------------------------------------------------------------------------------|
-----------------10----------------------10----------------------10-------------|
--11-13----------------------13----------------------13----------------------13-|
--------------------------------------------------------------------------------|
--------------------------------------------------------------------------------|
--------------------------------------------------------------------------------|


-----------------------|-----------12---------------|
---------10------------|-----10-------------10------|
-----------------------|--13----13-------13----11L--|
-----------------------|----------------------------|
-----------------------|----------------------------|
-----------------------|----------------------------|


-----------9----------------|-----------9----------------|
-----10----------10----10---|-----10----------10----10---|
--11----11----------11------|--11----11----------11------|
----------------------------|----------------------------|
----------------------------|----------------------------|
----------------------------|----------------------------|


--------------------------------------------------------------------------------|
-----------------10----------------------10----------------------10-------------|
--11s13----------------------13----------------------13----------------------13-|
--------------------------------------------------------------------------------|
--------------------------------------------------------------------------------|
--------------------------------------------------------------------------------|


-----------------------|-----------12---------------|
---------10------------|-----10-------------10------|
-----------------------|--13----13-------13----11L--|
-----------------------|----------------------------|
-----------------------|----------------------------|
-----------------------|----------------------------|


-----------9----------------|-----9h-12-16h12h9----------|
-----10----------10----10---|--------------------10------|
--11----11----------11------|--11-------------------11---|
----------------------------|----------------------------|
----------------------------|----------------------------|
----------------------------|----------------------------|


--------------------------------------------------------------------------------|
-----------------10----------------------10----------------------10-------------|
--11s13----------------------13----------------------13----------------------13-|
--------------------------------------------------------------------------------|
--------------------------------------------------------------------------------|
--------------------------------------------------------------------------------|


-----------------------|-----------12---------------|
---------10------------|-----10-------------10------|
-----------------------|--13----13-------13----11L--|
-----------------------|----------------------------|
-----------------------|----------------------------|
-----------------------|----------------------------|


-----------9----------------|-----------9----------------|
-----10----------10----10---|-----10----------10----10---|
--11----11----------11------|--11----11----------11------|
----------------------------|----------------------------|
----------------------------|----------------------------|
----------------------------|----------------------------|


--------------------------------------------------------------------------------|
-----------------10----------------------10----------------------10-------------|
--11s13----------------------13----------------------13----------------------13-|
--------------------------------------------------------------------------------|
--------------------------------------------------------------------------------|
--------------------------------------------------------------------------------|


-----------------------|-----------12---------------|
---------10------------|-----10-------------10------|
-----------------------|--13----13-------13----11L--|
-----------------------|----------------------------|
-----------------------|----------------------------|
-----------------------|----------------------------|


-----------9----------------|-----9h-12-16h12h9----------|-------|-------||
-----10----------10----10---|--------------------10------|-------|-------||
--11----11----------11------|--11-------------------11---|-------|-------||
----------------------------|----------------------------|-------|-------||
----------------------------|----------------------------|-------|-------||
----------------------------|----------------------------|-------|-------||
__________________________________________________________________________________________
Rhythm Guitar
Drop C

Legend
L - tied note
x - dead note
h - hammer on/pull off
b - bend
s - slide
~ - vibrato
g - ghost note
> - accentuated note
t - trill
M - palm mute
. - staccato
P - popping (bass)
S - slapping (bass)
+ - tapping
W - wide vibrato
< - fade in
w - whammy bar
= - tremolo picking
v - brush up
^ - brush down
V - pick stroke up
n - pick stroke down

Intro
D |----------|-------|-------|-------|
A |----------|-------|-------|-------|
F |----------|-------|-------|-------|
C |--0L-0L---|--0L---|--0L---|--0----|
G |--0L-0L---|--0L---|--0L---|--0----|
C |----------|-------|-------|-------|


----------------------------------------------------|
----------------------------------------------------|
----------------------------------------------------|
----------------------------------------------------|
--0M----------0M----0M----------0M----------0M-0M---|
--0M----------0M----0M----------0M----------0M-0M---|


----------------------------------------------------|
----------------------------------------------------|
----------------------------------------------------|
----------------------------------------------------|
--0M----------0M-0M-0M----------0M------------------|
--0M----------0M-0M-0M----------0M------------------|


----------------------------------------------------|
----------------------------------------------------|
----------------------------------------------------|
----------------------------------------------------|
--0M----------0M-0M-0M----------0M-0M-0M----0M-0M---|
--0M----------0M-0M-0M----------0M-0M-0M----0M-0M---|


----------------------------------------------------|
----------------------------------------------------|
----------------------------------------------------|
----------------------------------------------------|
--0M----------0M-0M-0M----------0M----------0M-0M---|
--0M----------0M-0M-0M----------0M----------0M-0M---|


----------------------------------------------------|
----------------------------------------------------|
----------------------------------------------------|
----------------------------------------------------|
--0M----------0M----0M----------0M----------0M-0M---|
--0M----------0M----0M----------0M----------0M-0M---|


----------------------------------------------------|
----------------------------------------------------|
----------------------------------------------------|
----------------------------------------------------|
--0M----------0M-0M-0M----------0M------------------|
--0M----------0M-0M-0M----------0M------------------|


----------------------------------------------------|
----------------------------------------------------|
----------------------------------------------------|
----------------------------------------------------|
--0M----------0M-0M-0M----------0M-0M-0M----0M-0M---|
--0M----------0M-0M-0M----------0M-0M-0M----0M-0M---|


----------------------------------------------------|
----------------------------------------------------|
----------------------------------------------------|
----------------------------------------------------|
--0M----------0M-0M-0M----------0M----------0M-0M---|
--0M----------0M-0M-0M----------0M----------0M-0M---|


----------------------------------------------------|
----------------------------------------------------|
----------------------------------------------------|
----------------------------------------------------|
--0M----------0M----0M----------0M----------0M-0M---|
--0M----------0M----0M----------0M----------0M-0M---|


----------------------------------------------------|
----------------------------------------------------|
----------------------------------------------------|
----------------------------------------------------|
--0M----------0M-0M-0M----------0M------------------|
--0M----------0M-0M-0M----------0M------------------|


----------------------------------------------------|
----------------------------------------------------|
----------------------------------------------------|
----------------------------------------------------|
--0M----------0M-0M-0M----------0M-0M-0M----0M-0M---|
--0M----------0M-0M-0M----------0M-0M-0M----0M-0M---|


----------------------------------------------------|
----------------------------------------------------|
----------------------------------------------------|
----------------------------------------------------|
--0M----------0M-0M-0M----------0M----------0M-0M---|
--0M----------0M-0M-0M----------0M----------0M-0M---|


----------------------------------------------------|
----------------------------------------------------|
----------------------------------------------------|
----------------------------------------------------|
--0M----------0M----0M----------0M----------0M-0M---|
--0M----------0M----0M----------0M----------0M-0M---|


----------------------------------------------------|
----------------------------------------------------|
----------------------------------------------------|
----------------------------------------------------|
--0M----------0M-0M-0M----------0M------------------|
--0M----------0M-0M-0M----------0M------------------|


----------------------------------------------------|
----------------------------------------------------|
----------------------------------------------------|
----------------------------------------------------|
--0M----------0M-0M-0M----------0M-0M-0M----0M-0M---|
--0M----------0M-0M-0M----------0M-0M-0M----0M-0M---|


----------------------------------------------------|
----------------------------------------------------|
----------------------------------------------------|
----------------------------------------------------|
--0M----------0M-0M-0M----------0M------------------|
--0M----------0M-0M-0M----------0M----------0M-0M---|

Verse
----------------------------------------------------|
----------------------------------------------------|
--------6-----6-----------6-----6-----------6-------|
--------7-----7-----------7-----7-----------7-------|
--------5-----5-----------5-----5-----------5-------|
--0M-0M-------------0M-0M-------------0M-0M---------|


----------------------------------------------------|
----------------------------------------------------|
--6-----------6-----6-------------------------------|
--7-----------7-----7-------------------------------|
--5-----------5-----5-----0M-0M-0M-0M-0M------------|
--------0M-0M-------------0M-0M-0M-0M-0M----0M-0M---|


----------------------------------------------------|
----------------------------------------------------|
--------6-----6-----------6-----6-----------6-------|
--------7-----7-----------7-----7-----------7-------|
--------5-----5-----------5-----5-----------5-------|
--0M-0M-------------0M-0M-------------0M-0M---------|


----------------------------------------------------|
----------------------------------------------------|
--6-----------6-----6--------------18---------------|
--7-----------7-----7-----0h-14h16----16h0--14h16---|
--5-----------5-----5-------------------------------|
--------0M-0M---------------------------------------|


----------------------------------------------------|
----------------------------------------------------|
--------1-----1-----------1-----1-----------1-------|
--------2-----2-----------2-----2-----------2-------|
--------2-----2-----------2-----2-----------2-------|
--0M-0M-------------0M-0M-------------0M-0M---------|


----------------------------------------------------|
----------------------------------------------------|
--1-----------1-----1-------------------------------|
--2-----------2-----2-------------------------------|
--2-----------2-----2-----4M-4M-4M-4M-4M-4M-4M-4M---|
--------0M-0M---------------------------------------|


----------------------------------------------------|
----------------------------------------------------|
--------6-----6-----------6-----6-----------6-------|
--------7-----7-----------7-----7-----------7-------|
--5M-5M-5-----5-----5M-5M-5-----5-----5M-5M-5-------|
----------------------------------------------------|

                             Chorus
----------------------------|----------------------------|
----------------------------|----------------------------|
--6-------------------------|----------------------------|
--7--0M-0M-0M---------------|--4--4--4--4--4--4--4--0----|
--5--0M-0M-0M---------------|--4--4--4--4--4--4--4--0----|
----------------------------|--4--4--4--4--4--4--4--0----|


----------------------------|----------------------------|
----------------------------|----------------------------|
----------------------------|-----------------------6----|
--0--0--0--0--0--0--0--0----|--2--2--2--2--2--2--2--6----|
--0--0--0--0--0--0--0--0----|--2--2--2--2--2--2--2--4----|
--0--0--0--0--0--0--0--0----|--2--2--2--2--2--2--2-------|


----------------------------|----------------------------|
----------------------------|----------------------------|
--6--6--6--6--6--6--6--6----|----------------------------|
--6--6--6--6--6--6--6--6----|--0--0--0--0--0--0--0--4----|
--4--4--4--4--4--4--4--4----|--0--0--0--0--0--0--0--4----|
----------------------------|--0--0--0--0--0--0--0--4----|


----------------------------|----------------------------|
----------------------------|----------------------------|
----------------------------|----------------------------|
--4--4--4--4--4--4--4--4----|--2--2--2--2--2--2--2--2----|
--4--4--4--4--4--4--4--4----|--2--2--2--2--2--2--2--2----|
--4--4--4--4--4--4--4--4----|--2--2--2--2--2--2--2--2----|


----------------------------|----------------------------|
----------------------------|----------------------------|
-----------------6--6--6----|----------------------------|
--2--2--2--2-----6--6--6----|--4--4--4--4--4--4--4--0----|
--2--2--2--2-----4--4--4----|--4--4--4--4--4--4--4--0----|
--2--2--2--2--0M------------|--4--4--4--4--4--4--4--0----|


----------------------------|----------------------------|
----------------------------|----------------------------|
----------------------------|-----------------------6----|
--0--0--0--0--0--0--0--0----|--2--2--2--2--2--2--2--6----|
--0--0--0--0--0--0--0--0----|--2--2--2--2--2--2--2--4----|
--0--0--0--0--0--0--0--0----|--2--2--2--2--2--2--2-------|


----------------------------|----------------------------|
----------------------------|----------------------------|
--6--6--6--6--6--6--6--6----|----------------------------|
--6--6--6--6--6--6--6--6----|--0--0--0--0--0--0--0--4----|
--4--4--4--4--4--4--4--4----|--0--0--0--0--0--0--0--4----|
----------------------------|--0--0--0--0--0--0--0--4----|


----------------------------|----------------------------|
----------------------------|----------------------------|
----------------------------|----------------------------|
--4--4--4--4--4--4--4--4----|--2--2--2--2--2--2--2--2----|
--4--4--4--4--4--4--4--4----|--2--2--2--2--2--2--2--2----|
--4--4--4--4--4--4--4--4----|--2--2--2--2--2--2--2--2----|


----------------------------|
----------------------------|
-----------------6--6--6----|
--2--2--2--2-----6--6--6----|
--2--2--2--2-----4--4--4----|
--2--2--2--2--0M------------|

Interlude
----------------------------------------------------|
----------------------------------------------------|
----------------------------------------------------|
----------------------------------------------------|
--------0M----0M----------0M----0M----------0M-0M---|
--------0M----0M----------0M----0M----------0M-0M---|


----------------------------------------------------|
----------------------------------------------------|
----------------------------------------------------|
----------------------------------------------------|
--0M----------0M-0M-0M------------------------------|
--0M----------0M-0M-0M------------------------------|


----------------------------------------------------|
----------------------------------------------------|
----------------------------------------------------|
----------------------------------------------------|
--------0M-0M-0M----------0M----0M----------0M-0M---|
--------0M-0M-0M----------0M----0M----------0M-0M---|


----------------------------------------------------|
--------------------------10----10----10.10.10.10.--|
-----------------------13----13----13-13.13.13.13.--|
----------------------------------------------------|
--0M----------0M-0M-0M------------------------------|
--0M----------0M-0M-0M------------------------------|

Verse
----------------------------------------------------|
----------------------------------------------------|
----------------------------------------------------|
----------------------------------------------------|
----------------------------------------------------|
--0M-0M-4-----4-----0M-0M-4-----4-----0M-0M-4-------|


----------------------------------------------------|
----------------------------------------------------|
----------------------------------------------------|
----------------------------------------------------|
----------------------------------------------------|
--0M-0M-0M-0M-4-----4-----0M-0M-0M-0M-0M-0M-0M-0M---|


----------------------------------------------------|
----------------------------------------------------|
----------------------------------------------------|
----------------------------------------------------|
----------------------------------------------------|
--0M-0M-4-----4-----0M-0M-4-----4-----0M-0M-4-------|


--------------------------------------------------------------------------------|
--------------------------------------------------------------------------------|
--------------------------------------------------------------------------------|
--------------------------------------------------------------0s-4--------------|
--------------------------------------------------0--------------------------0--|
--0M----0M----0M----0M----2-----------2-----------------------------------------|


--------------------------|----------------------------------------------------|
--------------------------|----------------------------------------------------|
--------------------------|----------------------------------------------------|
---------2h-4-------------|--------7-----7-----------7-----7-----------7-------|
--------------------------|--------4-----4-----------4-----4-----------4-------|
--------------------------|--0M-0M-4-----4-----0M-0M-4-----4-----0M-0M-4-------|


----------------------------------------------------|
----------------------------------------------------|
----------------------------------------------------|
--------------7-----7-------------------------------|
--------------4-----4-------------------------------|
--0M-0M-0M-0M-4-----4-----0M-0M-0M-0M-0M-0M-0M-0M---|


----------------------------------------------------|
----------------------------------------------------|
----------------------------------------------------|
--------7-----7-----------7-----7-----------7-------|
--------4-----4-----------4-----4-----------4-------|
--0M-0M-4-----4-----0M-0M-4-----4-----0M-0M-4-------|


----------------------------------------------------|
----------------------------------------------------|
----------------------------------------------------|
--------------6-----6-------------------------------|
--------------2-----2-------------------------------|
--0M-0M-0M-0M-2-----2-------------------------------|


----------------------------------------------------|
----------------------------------------------------|
--------6-----6-----------6-----6-----------6-------|
--------7-----7-----------7-----7-----------7-------|
--------5-----5-----------5-----5-----------5-------|
--0M-0M-------------0M-0M-------------0M-0M---------|


----------------------------------------------------|
----------------------------------------------------|
--6-----------6-----6-------------------------------|
--7-----------7-----7-------------------------------|
--5-----------5-----5-----0M-0M-0M-0M-0M------------|
--------0M-0M-------------0M-0M-0M-0M-0M----0M-0M---|


----------------------------------------------------|
----------------------------------------------------|
--------6-----6-----------6-----6-----------6-------|
--------7-----7-----------7-----7-----------7-------|
--------5-----5-----------5-----5-----------5-------|
--0M-0M-------------0M-0M-------------0M-0M---------|


----------------------------------------------------|
----------------------------------------------------|
--6-----------6-----6--------------18---------------|
--7-----------7-----7-----0h-14h16----16h0--14h16---|
--5-----------5-----5-------------------------------|
--------0M-0M---------------------------------------|


----------------------------------------------------|
----------------------------------------------------|
--------1-----1-----------1-----1-----------1-------|
--------2-----2-----------2-----2-----------2-------|
--------2-----2-----------2-----2-----------2-------|
--0M-0M-------------0M-0M-------------0M-0M---------|


----------------------------------------------------|
----------------------------------------------------|
--1-----------1-----1-------------------------------|
--2-----------2-----2-------------------------------|
--2-----------2-----2-----4M-4M-4M-4M-4M-4M-4M-4M---|
--------0M-0M---------------------------------------|


----------------------------------------------------|
----------------------------------------------------|
--------6-----6-----------6-----6-----------6-------|
--------7-----7-----------7-----7-----------7-------|
--5M-5M-5-----5-----5M-5M-5-----5-----5M-5M-5-------|
----------------------------------------------------|


----------------------------|
----------------------------|
--6-------------------------|
--7--0M-0M-0M---------------|
--5--0M-0M-0M---------------|
----------------------------|

Chorus


Bridge
----------------------------------------------------|
----------------------------------------------------|
--------9-----9-----------9-----9-----------9-------|
--------6-----6-----------6-----6-----------6-------|
--------7-----7-----------7-----7-----------7-------|
--0M-0M-------------0M-0M-------------0M-0M---------|


----------------------------------------------------|
----------------------------------------------------|
--------9-----9-----9--------------18---------------|
--------6-----6-----6-----0h-14h16----16h0--14h16---|
--------7-----7-----7-------------------------------|
--0M-0M---------------------------------------------|


----------------------------------------------------|
--------7-----7-----------7-----7-----7-----7-------|
--------6-----6-----------6-----6-----6-----6-------|
--------0-----0-----------0-----0-----0-----0-------|
--------0-----0-----------0-----0-----0-----0-------|
--0M-0M-------------0M-0M---------------------------|


----------------------------------------------------|
--------7-----7-----7-------------------------------|
--------6-----6-----6--------------14----------16---|
--------0-----0-----0-----0h-11h12----0h-12h14------|
--------0-----0-----0-------------------------------|
--0M-0M---------------------------------------------|


----------------------------------------------------|
----------------------------------------------------|
--------9-----9-----------9-----9-----------9-------|
--------6-----6-----------6-----6-----------6-------|
--------7-----7-----------7-----7-----------7-------|
--0M-0M-------------0M-0M-------------0M-0M---------|


----------------------------------------------------|
----------------------------------------------------|
--------9-----9-----9--------------18---------------|
--------6-----6-----6-----0h-14h16----16h0--14h16---|
--------7-----7-----7-------------------------------|
--0M-0M---------------------------------------------|


----------------------------------------------------|
--------7-----7-----------7-----7-----7-----7-------|
--------6-----6-----------6-----6-----6-----6-------|
--------0-----0-----------0-----0-----0-----0-------|
--------0-----0-----------0-----0-----0-----0-------|
--0M-0M-------------0M-0M---------------------------|


----------------------------------------------------|
--------7-----7-----7-------------------------------|
--------6-----6-----6--------------14----------16---|
--------0-----0-----0-----0h-11h12----0h-12h14------|
--------0-----0-----0-------------------------------|
--0M-0M---------------------------------------------|


----------------------------------------------------|
----------------------------------------------------|
--------9-----9-----------9-----9-----------9-------|
--------6-----6-----------6-----6-----------6-------|
--------7-----7-----------7-----7-----------7-------|
--0M-0M-------------0M-0M-------------0M-0M---------|


----------------------------------------------------|
----------------------------------------------------|
--------9-----9-----9--------------18---------------|
--------6-----6-----6-----0h-14h16----16h0--14h16---|
--------7-----7-----7-------------------------------|
--0M-0M---------------------------------------------|


----------------------------------------------------|
--------7-----7-----------7-----7-----7-----7-------|
--------6-----6-----------6-----6-----6-----6-------|
--------0-----0-----------0-----0-----0-----0-------|
--------0-----0-----------0-----0-----0-----0-------|
--0M-0M-------------0M-0M---------------------------|


----------------------------------------------------|
--------7-----7-----7-------------------------------|
--------6-----6-----6--------------14----------16---|
--------0-----0-----0-----0h-11h12----0h-12h14------|
--------0-----0-----0-------------------------------|
--0M-0M---------------------------------------------|


----------------------------------------------------|
----------------------------------------------------|
--------9-----9-----------9-----9-----------9-------|
--------6-----6-----------6-----6-----------6-------|
--------7-----7-----------7-----7-----------7-------|
--0M-0M-------------0M-0M-------------0M-0M---------|


----------------------------------------------------|
----------------------------------------------------|
--------9-----9-----9--------------18---------------|
--------6-----6-----6-----0h-14h16----16h0--14h16---|
--------7-----7-----7-------------------------------|
--0M-0M---------------------------------------------|


----------------------------|----------------------------|
--7--7--7--7--9--9--9--9----|--10-10-10-10-12-12-12-12---|
--x--x--x--x--x--x--x--x----|--x--x--x--x--x--x--x--x----|
--4--4--4--4--6--6--6--6----|--7--7--7--7--9--9--9--9----|
--0--0--0--0--0--0--0--0----|--0--0--0--0--0--0--0--0----|
--0--0--0--0--0--0--0--0----|--0--0--0--0--0--0--0--0----|


----------------------------|----------------------------|
--14-14-14-14-15-15-15-15---|--17-17-17-17-19-19-19-19---|
--x--x--x--x--x--x--x--x----|--x--x--x--x--x--x--x--x----|
--11-11-11-11-12-12-12-12---|--14-14-14-14-16-16-16-16---|
--0--0--0--0--0--0--0--0----|--0--0--0--0--0--0--0--0----|
--0--0--0--0--0--0--0--0----|--0--0--0--0--0--0--0--0----|

Chorus



|----------|
|----------|
|----------|
|----------|
|----------|
|----------|

Outro
----------------------------------------------------|
----------------------------------------------------|
----------------------------------------------------|
----------------------------------------------------|
--0M----------0M----0M----------0M----------0M-0M---|
--0M----------0M----0M----------0M----------0M-0M---|


----------------------------------------------------|
----------------------------------------------------|
----------------------------------------------------|
----------------------------------------------------|
--0M----------0M-0M-0M----------0M------------------|
--0M----------0M-0M-0M----------0M------------------|


----------------------------------------------------|
----------------------------------------------------|
----------------------------------------------------|
----------------------------------------------------|
--0M----------0M-0M-0M----------0M-0M-0M----0M-0M---|
--0M----------0M-0M-0M----------0M-0M-0M----0M-0M---|


----------------------------------------------------|
----------------------------------------------------|
----------------------------------------------------|
----------------------------------------------------|
--0M----------0M-0M-0M----------0M----------0M-0M---|
--0M----------0M-0M-0M----------0M----------0M-0M---|


----------------------------------------------------|
----------------------------------------------------|
----------------------------------------------------|
----------------------------------------------------|
--0M----------0M----0M----------0M----------0M-0M---|
--0M----------0M----0M----------0M----------0M-0M---|


----------------------------------------------------|
----------------------------------------------------|
----------------------------------------------------|
----------------------------------------------------|
--0M----------0M-0M-0M----------0M------------------|
--0M----------0M-0M-0M----------0M------------------|


----------------------------------------------------|
----------------------------------------------------|
----------------------------------------------------|
----------------------------------------------------|
--0M----------0M-0M-0M----------0M-0M-0M----0M-0M---|
--0M----------0M-0M-0M----------0M-0M-0M----0M-0M---|


----------------------------------------------------|
----------------------------------------------------|
----------------------------------------------------|
----------------------------------------------------|
--0M----------0M-0M-0M----------0M----------0M-0M---|
--0M----------0M-0M-0M----------0M----------0M-0M---|


----------------------------------------------------|
----------------------------------------------------|
----------------------------------------------------|
----------------------------------------------------|
--0M----------0M----0M----------0M----------0M-0M---|
--0M----------0M----0M----------0M----------0M-0M---|


----------------------------------------------------|
----------------------------------------------------|
----------------------------------------------------|
----------------------------------------------------|
--0M----------0M-0M-0M----------0M------------------|
--0M----------0M-0M-0M----------0M------------------|


----------------------------------------------------|
----------------------------------------------------|
----------------------------------------------------|
----------------------------------------------------|
--0M----------0M-0M-0M----------0M-0M-0M----0M-0M---|
--0M----------0M-0M-0M----------0M-0M-0M----0M-0M---|


----------------------------------------------------|
----------------------------------------------------|
----------------------------------------------------|
----------------------------------------------------|
--0M----------0M-0M-0M----------0M----------0M-0M---|
--0M----------0M-0M-0M----------0M----------0M-0M---|


----------------------------------------------------|
----------------------------------------------------|
----------------------------------------------------|
----------------------------------------------------|
--0M----------0M----0M----------0M----------0M-0M---|
--0M----------0M----0M----------0M----------0M-0M---|


----------------------------------------------------|
----------------------------------------------------|
----------------------------------------------------|
----------------------------------------------------|
--0M----------0M-0M-0M----------0M------------------|
--0M----------0M-0M-0M----------0M------------------|


----------------------------------------------------|
----------------------------------------------------|
----------------------------------------------------|
----------------------------------------------------|
--0M----------0M-0M-0M----------0M-0M-0M----0M-0M---|
--0M----------0M-0M-0M----------0M-0M-0M----0M-0M---|


----------------------------------------------------|-------|-------||
----------------------------------------------------|-------|-------||
----------------------------------------------------|-------|-------||
----------------------------------------------------|-------|-------||
--0M----------0M-0M-0M----------0M------------------|-------|-------||
--0M----------0M-0M-0M----------0M----------0M-0M---|-------|-------||


Enjoy! i tried to make it as simple as possible





Comments


Popular Haste The Day tabs & chords
An Honest Confession Bass Tabs
Autumn Bass Tabs
An Honest Confession Intro Tabs
Blue 42 Tabs
Blue 42 2 Tabs
Closest Thing To Closure Tabs
For A Lifetime Tabs
Long Way Down Tabs
Substance 1 Tabs
Travesty Intro Tabs


Song lyrics



↑ Back to top | Tablatures and chords are parodies/interpretations of the original songs. You may use it for private study, scholarship, research or language learning purposes only
© 2014 AZChords.com Contact us | Privacy policy | DMCA | Add/correct tabs | Request tabs | Top 50 tabs