>
 >
Concerning The Way It Was

Concerning The Way It Was Guitar Tabs

Haste The Day - Concerning The Way It Was chords, tabs, tablatures, lyrics

Guitar lessons | Add/correct | Request | Top 50 tabs Artists:  A B C D E F G H I J K L M N O P Q R S T U V W X Y Z 0-9

Concerning The Way It Was Guitar Tabs – Haste The Day

CD, Sheet music, Poster

Do you like Concerning The Way It Was? Share with your friends now
Tabs
Intro
Guitar 1:
D|------------------------------------------------------------|
A|------------------------------------------------------------|
F|------------------------------------------------------------|
C|00--------------00---------00--0-0-0--00-00---0~~-----------|
G|00--------------00---------00--0-0-0--00-00---0~~-----00000-|
C|00--------------00---------00--0-0-0--00-00---0~~-----00000-|
PM..              ..         ..  . . .  .. ..           .....    
Intro
Guitar 2: Tremolo Picking
D|------------------------------------------------------------------------|
A|------------------------------------------------------------------------|
F|------------------------------------------------------------------------|
C|------------------------------------------------------------------------|
G|-10-8-7--8-7-8---10-8-10-12-10-8-7-5---8-7-8-10-8-7----10-8-10---12-10-8|
C|0------10------8---------------------0-------------10-8--------7--------|
  .                                    .
Part 1
Guitar 1:
|--------------------------------------------|
|--------------------------------------------|
|1010101010101010-99999999-77777777-55555555-|
|x-x-x-x-x-x-x-x--xxxxxxxx-xxxxxxxx-xxxxxxxx-|
|8-8-8-8-8-8-8-8--77777777-55555555-33333333-|
|--------------------------------------------|

|---------------------------------------------------------|
|---------------------------------------------------------|
|1010101010101010-99999999-1212121212121212-9999-10101010-|
|x-x-x-x-x-x-x-x--xxxxxxxx-x-x-x-x-x-x-x-x--xxxx-xxxxxxxx-|
|8-8-8-8-8-8-8-8--77777777-1010101010101010-7777-88888888-|
|---------------------------------------------------------|

|--------------------------------------------|
|--------------------------------------------|
|1010101010101010-99999999-77777777-55555555-|
|x-x-x-x-x-x-x-x--xxxxxxxx-xxxxxxxx-xxxxxxxx-|
|8-8-8-8-8-8-8-8--77777777-55555555-33333333-|
|--------------------------------------------|

|------------------------------------------------------------|
|------------------------------------------------------------|
|1010101010101010-1212121212121212-99999999-1010101010101010-|
|x-x-x-x-x-x-x-x--x-x-x-x-x-x-x-x--xxxxxxxx-x-x-x-x-x-x-x-x--|
|8-8-8-8-8-8-8-8--1010101010101010-77777777-8-8-8-8-8-8-8-8--|
|------------------------------------------------------------|

Part 1
Guitar 2: Tremolo Picking_______2x
|------------------------------------------------------------------------|
|------------------------------------------------------------------------|
|------------------------------------------------------------------------|
|------------------------------------------------------------------------|
|-10-8-7--8-7-8---10-8-10-12-10-8-7-5---8-7-8-10-8-7----10-8-10---12-10-8|
|0------10------8---------------------0------------10-8---------7--------|
 .                                    .
Part 2
Guitar 1:_________________6x
|-----------------------------------------------------------|
|-----------------------------------------------------------|
|-----------------------------------------------------------|
|0000--12~121212--0000--10~101010--0000--8~888--0000--7~777-|
|0000--12~121212--0000--10~101010--0000--8~888--0000--7~777-|
|0000--12~121212--0000--10~101010--0000--8~888--0000--7~777-|
 ....             ....             ....         ....
Part 2
Guitar 2:________________3x-after guitar plays once
|--------------------------------------------------------------|
|--------------------------------------------------------------|
|------14~141414--------12~121212--------10~101010-------9~999-|
|0000--x--x-x-x---0000--x--x-x-x---0000--x--x-x-x--0000--x-xxx-|
|0000--12~121212--0000--10~101010--0000--8~-8-8-8--0000--7~777-|
|0000-------------0000-------------0000------------0000--------|
 ....             ....             ....            ....
_______________2x
|------------------------------------------------------------|
|------------------------------------------------------------|
|------14~121012--------12~10910--------10~979--------9~9910-|
|0000--x--x-x-x---0000--x--x-xx---0000--x--xxx--0000--x-xxx--|
|0000--12~108-10--0000--10~8-78---0000--8~-757--0000--7~778--|
|0000-------------0000------------0000----------0000---------|
 ....             ....            ....          ....
Part 3
Guitar 1:____________4x-skip the second part on the 4th way through
|----------------|-------------------------|-------------------------|
|----------------|-------------------------|-------------------------|
|----------------|-------------------------|-------------------------|
|----------------|00-----00----------------|00-----00----------------|
|----------------|00-8-8-00-5555-8888-7777-|00-5-5-00-7777-8888-7777-|
|----------------|00--0--00----------------|00--0--00----------------|
                  ..     ..                 ..     ..
Part 3
Guitar 2: Tremolo Picking_______2x
|------------------------------------------------------------------------|
|------------------------------------------------------------------------|
|------------------------------------------------------------------------|
|------------------------------------------------------------------------|
|-10-8-7--8-7-8---10-8-10-12-10-8-7-5---8-7-8-10-8-7----10-8-10---12-10-8|
|0------10------8---------------------0------------10-8---------7--------|
 .                                    .
Part 4
Guitar 1:__________4x-play second part once more
|-------------------|-----------------|
|-------------------|-----------------|
|-------------------|-------------14~-|
|00-----------------|-------------x---|
|00-8-7-8-10-8-7-5~-|8-7-8-10-8-7-12~-|
|00--0-0-0--0-0-0---|-0-0-0--0-0-0----|
 ..  . . .  . . .    . . .  . . .
Part 4
Guitar 2:
|-------------------|-----------------|
|-------------------|-----------------|
|-------------------|-------------14~-|
|-------------------|-------------x---|
|-------------------|8-7-8-10-8-7-12~-|
|-------------------|-0-0-0--0-0-0----|
                      . . .  . . .
|-----------------------------------------------------|
|-----------------------------------------------------|
|-----------------------------------------------------|
|-----------------------------------------------------|
|88888888-1010101010101010-12121212-10101010-12121212-|
|-----------------------------------------------------|

|-----------------------------|---------------------------|
|-----------------------------|---------------------------|
|-----------------------------|---------------------------|
|-----------------------------|---------------------------|
|88888888-1010101010101010/12-|77777777-12121212-10101010-|
|-----------------------------|---------------------------|

Outro
Guitar 1:
|--------------------------|
|--------------------------|
|--------------------------|
|---------------------00---|
|-10-8-7----8-7-8-----00---|
|0-------10-----------00---|
 .                     ..





Comments


Popular Haste The Day tabs & chords
Autumn Bass Tabs
Substance Bass Tabs
Autumn 1 Tabs
Blue 42 Tabs
Breaking My Own Heart 1 Tabs
Janet's Planet Tabs
Long Way Down 3 Tabs
O Come Emmanuel Intro Tabs
One Life To Live Tabs
PorcelainIntro Tabs


Song lyrics



↑ Back to top | Tablatures and chords are parodies/interpretations of the original songs. You may use it for private study, scholarship, research or language learning purposes only
© 2014 AZChords.com Contact us | Privacy policy | DMCA | Add/correct tabs | Request tabs | Top 50 tabs