» » »

Breaking My Own Heart Tabs (ver.5)

Artists:  A B C D E F G H I J K L M N O P Q R S T U V W X Y Z # 

Breaking My Own Heart Tabs (ver.5)

Haste The Day
Rating:
0/5 (0 votes)

Hard to play? Try these video lessons and learn fast.
                ----------------------------------------------------------------------------
                        Haste the Day-Breaking my own Heart
----------------------------------------------------------------------------
tuning:drop d
I figured I should tab this seeing as all there is on any other site is the intro.
I would say this tab is 99% it is supposed to be in drop C but can work all other than
one chord in drop D to make things simpler. if you want play it in drop c with everything
2 frets up.
Palm mute:*
pulloff:p
bend:b(bend to note after it)
Hammer on: H
intro:rhythm
e------------------------------------------|
b------------------------------------------|
g------------------------------------------|
d-5-55555-5-3-5-3/5-6-66666666--8-88888888-|X6
a-3-33333-3-1-3-1/3-6-66666666--8-88888888-|
d-------------------6-66666666--8-88888888-|
    *****             ********    ********
intro:lead comes in after 2nd rhythm time around
e-------------------------------------------------------|
b-8-----8-----8-----8-----8-----8-----8-----------------|
g-10b12-10b12-10b12-10b12-10b12-10b12---10p8--10b12-----|
d-------------------------------------------10----------|
a-------------------------------------------------------|
d-------------------------------------------------------|

e----------------------------------------------------------|
b-8h11p8-8h11p8-8h11p8-8h11p8-8h11p8-8h11p8-8h11p8-8h11p8--|
g----------------------------------------------------------|
d----------------------------------------------------------|
a----------------------------------------------------------|
d----------------------------------------------------------|

e----------------------------------------------------------------|
b-10h13p10-10h13p10-10h13p10-10h13p10-13h16p13-13h16p13-13h16p13-|
g----------------------------------------------------------------|
d----------------------------------------------------------------|
a----------------------------------------------------------------|
d----------------------------------------------------------------|

e----------------------------------------------------------------|
b-13h16p13-16b18~~-----------------------------------------------|
g----------------------------------------------------------------|
d----------------------------------------------------------------|
a----------------------------------------------------------------|
d----------------------------------------------------------------|

verse
e--------------------------------------|
b--------------------------------------|                           5
g--------------------------------------|X4(on the 4th time let the 3 ring)
d-7-7-5-5-5-3-3-3-1-3/5-3-1h3p1--------|
a-5-----3-----1------------------------|
d--------------------------------------|

clean
e--------------------------------------|
b----0-0-----0-0-----0-0-----0---0-----|                           1 
g---0-------0-------0-------0-0--------|X4(on the 4th time let the 3 ring)
d--5-------3-------1-------1---1-------|
a-7-------5-------3-------3------------|
d--------------------------------------|

Chorus(on the fourth time let the 3/5 ring)
e------------------------------------------------------------|
b------------------------------------------------------------|
g------------------------------------------------------------|
d-7-7-5--5h7p5--5-5-3-3h5p3-3-3-1-1h3p1--1h3p1-3/5-5-3-1-----|X4
a-5----5--------3----3------1----1------1-----1--------------|
d------------------------------------------------------------|
Bridge: this is where you need drop c only because you cannot
get any lower so the 1 here is a fret too high and cannot be
played open because then you cannot pull off to anything.
e------------------------------------------------------------|
b------------------------------------------------------------|
g----2-----2p0----1-----1p0----2---2/4---4----2---1---2p0----|
d-00-0-000-0---00-0-000-0---00-0-0-0-0-0-0-00-0-0-0-0-0------|X4
a-00---000-----00---000-----00---0-----0---00---0---0--------|
d-00---000-----00---000-----00---0-----0---00---0---0--------|

Chorus(on the fourth time let the 3/5 ring)
e------------------------------------------------------------|
b------------------------------------------------------------|
g------------------------------------------------------------|
d-7-7-5--5h7p5--5-5-3-3h5p3-3-3-1-1h3p1--1h3p1-3/5-5-3-1-----|X4
a-5----5--------3----3------1----1------1-----1--------------|
d------------------------------------------------------------|
            
Hard to play? Try these video lessons and learn fast. | Correct




comments powered by Disqus
↑ Back to top | Tablatures and chords are parodies/interpretations of the original songs. You may use it for private study, scholarship, research or language learning purposes only