» » »

Haste The Day, Breaking My Own Heart Tabs (ver.4)

Artists:  A B C D E F G H I J K L M N O P Q R S T U V W X Y Z # 

Breaking My Own Heart Tabs (ver.4)

Haste The Day Tabs
Rating:
5/5 (7 votes)
Breaking My Own Heart lessons Tabs too difficult? Try these video lessons and learn fast
                Artist - Haste the Day
Song - Breaking My Own Heart
Album - Burning Bridges
Tuning - DADGBE

Intro – guitar 1
|------------------------------------------------------------|
|------------------------------------------------------------|
|------------------------------------------------------------|
|--10-x-x-x-x-x-10-8-10-8h10p8-6-666666666666-8-888888888888-| x6
|--10-x-x-x-x-x-10-8-10-8h10p8-6-666666666666-8-888888888888-|
|--10-x-x-x-x-x-10-8-10-8h10p8-6-666666666666-8-888888888888-|
                                 ............   ............

Intro – guitar 2(come in 2nd time)
|------------------------------------------------------------|
|------------------------------------------------------------|
|------------------------------------------------------------|
|--10-----------10-8-10-8h10p8-6--------------8--------------|
|--10-----------10-8-10-8h10p8-6--------------8--------------|
|--10-----------10-8-10-8h10p8-6--------------8--------------|

Intro/Solo – guitar 2
|----------------------------------------|
|-13--13--13--13--13--13-----------------|
|-16b-16b-16b-16b-16b-16b--10b-10-8h10b~-|
|----------------------------------------|
|----------------------------------------|
|----------------------------------------|

|------------------------------------------------|
|-8-8h11p8h11p8h11p8h11p8h11p8h11p8h11p8h11p8h11-|     
|------------------------------------------------|
|------------------------------------------------|
|------------------------------------------------|
|------------------------------------------------|

|-------------------------------------------------|
|-13-16p14p13h16p14p13h16p14p13h16p14p13h16p14p13-|
|-------------------------------------------------|
|-------------------------------------------------|
|-------------------------------------------------|
|-------------------------------------------------|

|---------------------------------------------|
|-15-18p16p15h18p16p15h18p16p15h18p16p15h18b~-|
|---------------------------------------------|
|---------------------------------------------|
|---------------------------------------------|
|---------------------------------------------|

Verse – guitar 1
|-------------------|------------------|
|-------------------|------------------|
|-------------------|------------------| x4
|-7--7-5--5--5-3--3-|-3-2—2h3-5-3p2h3--|
|-5-------3-------1-|------------------|
|-------------------|------------------|
Half on fourth time through

Verse – guitar 2
|-------------------|------------------|
|-------------------|------------------|
|-------------------|------------------|
|-7--7-5--5--5-3--3-|-3333333333333333-| x4
|-5-------3-------1-|-1111111111111111-|
|-------------------|-1111111111111111-|
                      ................
Bridge 1 – guitar 1(clean)
|----------------|--------------|
|----------------|--------------|
|----2-----2-----|--2------2----| x4
|--3--3--3--3-3--|3--3---3--3-3-|
|-5----33-3--3—1-|-----11-1--1--|
|----------------|--------------|
Only half on the fourth time.

Bridge 1 – guitar 2(clean)
|------------------------|
|------------------------|
|----2~-----2~-------2~~-| x4
|--3------3--------3-----|
|-5-5----3-3------1-1----|
|------------------------|

Chorus/outro – guitar 1
|-------------------------------------|
|-------------------------------------|
|-------------------------------------|
|-77777777-55555555-33333333-33333333-| x4
|-55555555-33333333-11111111-11111111-|
|-------------------------------------|

Chorus/solo/outro – guitar 2
|----------------------------------------------------------------|
|----------------------------------------------------------------|
|-14p12-14p12-14p12-14p12-1212121212121212-101010109999-99999999-|
|----------------------------------------------------------------| x4
|----------------------------------------------------------------|
|----------------------------------------------------------------|
end with 8\\

Verse - guitar 1
|----------------------------|--------------------|
|----------------------------|--------------------|
|----------------------------|--------------------| x4
|-7-7-7--7-7-7--5-5-5—-5-5-5-|-3-3-3-2h3-5--3-2h3-| 
|-5-5----5-5----3-3----3-3---|-1-1----------------| 
|-5-5----5-5----3-3----3-3---|-1-1----------------|
  . .    . .    . .    . .     . .
end half way then strum  d-3; a-1

Verse 2 – guitar 2
|--------------------------------|----------------------------|
|--------------------------------|----------------------------|
|--------------------------------|----------------------------| x4
|-7-7-7--7-7-7\5--5-5-5—-5-5-5\3-|-3-3-3--3-3-3--3-3-3--3-3-3-| 
|-5-5-5--5-5-5\3--3-3-3--3-3-3\1-|-1-1-1--1-1-1--1-1-1--1-1-1-| 
|-5-5----5-5------3-3----3-3-----|-1-1----1-1----1-1----1-1---|
  . .    . .      . .    . .       . .    . .    . .    . .

Chorus/solo/outro - Both guitars

Enjoy!
            

comments powered by Disqus
↑ Back to top | Haste The Day Tabs for Breaking My Own Heart. Lyrics for acoustic guitar and electric guitar. Tablatures and chords are parodies/interpretations of the original songs. You may use it for private study, scholarship, research or language learning purposes only