>
 >
Blue 42

Blue 42 Bass Tabs

Haste The Day - Blue 42 chords, tabs, tablatures, lyrics

Guitar lessons | Add/correct | Request | Top 50 tabs Artists:  A B C D E F G H I J K L M N O P Q R S T U V W X Y Z 0-9

Blue 42 Bass Tabs – Haste The Day

CD, Sheet music, Poster

Do you like Blue 42? Share with your friends now
Bass TabsTabsTabs v2
ok i am tryin to do this w/o my bass w/ me at the monemt so i could b a bit off so sorry 
here we go i love this song


as soon as song startes play open on the E string let ring for about six secs.


Intro Breakdown bass startes at (0:17)


|----------------------------------------------------------|
|----------------------------------------------------------|
|----------------------------------------------------------|
|000----00-0-0--000----00-0-0--00000----00-0-0--000----0-0-|Play till about (0:49)


hit the open on E sting every time the guitar hit the beginning of its riff x2


Then come in w/ this at (1:01)

|------------------------------|
|------------------------------|
|----8-7-5-3-3-3h5--8-7-5-3-5-3|
|00----------------------------| till (1:20)


then play
|-----------------------------|
|-----------------------------|
|-----------------------------|
|-0-0-0---------0-000---------|x3


At the end of each time though play
|---------------|
|----------7-5-3|
|--10-8-7-------|
|---------------|


follow the the song and u will k how to play it


then at (1:48) play
|------------------------------------|
|------------------------------------|
|------------------------------------|
|5--3--2--7--5--3--5--3--2--7--5--3--|x1


the play same breakdown as the intro

then at (2:25) play
|--------------------------------------|
|--------------------------------------|
|--------------------------------------|
|--0--0-000--7--0-000--8--0-000--10--0-| bass does not play all the hammer on stuff or 
offs the guitar does but u can for a cool sound

play at(2:40)

|-----------------------------------------------|
|-----------------------------------------------|
|-----------------------------------------------|
|--0-0---------7-7---------8-8---------10-10----|

play at (2:54)

|-----------------------------------------------------------|
|-----------------------------------------------------------|
|-----------------------------------------------------------|
|---0-0-000-00---7-7-777-77---8-8-888-88--10-10-101010-1010-|


then the bass solo/ intro to breakdown at (3:24)

|------------------------------|
|------------------------------|
|-----------------------------5|
|00000---0-0-0-0--0000-0000----|


guitar come back in at (3:39)

and play that breakdown until the end and rock on


oh and btw the song is in Drop C





Comments


Popular Haste The Day tabs & chords
Breaking My Own Heart Bass Tabs
Autumn Chords
68 Tabs
Autumn 2 Tabs
Labyrinth Tabs
Long Way Down Tabs
Long Way Down 1 Tabs
One Life To Live Tabs
PorcelainIntro Tabs
This Time Its Real Tabs


Song lyrics



↑ Back to top | Tablatures and chords are parodies/interpretations of the original songs. You may use it for private study, scholarship, research or language learning purposes only
© 2014 AZChords.com Contact us | Privacy policy | DMCA | Add/correct tabs | Request tabs | Top 50 tabs