>
 >
Blue 42

Blue 42 Guitar Tabs

Haste The Day - Blue 42 chords, tabs, tablatures, lyrics

Guitar lessons | Add/correct | Request | Top 50 tabs Artists:  A B C D E F G H I J K L M N O P Q R S T U V W X Y Z 0-9

Blue 42 Guitar Tabs – Haste The Day

CD, Sheet music, Poster

Do you like Blue 42? Share with your friends now
Bass TabsTabsTabs v2
-------------------------------------------------------------------------------
-------------------------------------------------------------------------------

Tuning: Drop C

INTRO:
e|---------------------------------------------------------------------------|
B|---------------------------------------------------------------------------|
G|---------------------------------------------------------------------------|
D|--0~-----------------------------------------------------------------------|
A|--0~-----------------------------------------------------------------------|
E|--0~-----------------------------------------------------------------------|

Guitar 1
e|---------------------------------------------------------------------------|
B|---------------------------------------------------------------------------|
G|---------------------------------------------------------------------------|
D|----------------------------------------------------------121212141414-----|
A|--12121212121212121212121212121212121212121212141414151515------------1212-|
E|---------------------------------------------------------------------------|
  *This is only played once, the rest of the intro is just tremolo on 12th fret.  Listen 
the song to find out exactly when it is played.

Guitar 2
e|---------------------------------------------------------------------------|
B|---------------------------------------------------------------------------|
G|---------------------------------------------------------------------------|
D|000----00-0-0--000----00-0-0--00000----00-0-0--000----0-0------------------|
A|000----00-0-0--000----00-0-0--00000----00-0-0--000----0-0---12~------------|
E|000----00-0-0--000----00-0-0--00000----00-0-0--000----0-0------------------|
  ..     ..      ..     ..      ....     ..      ..     . .

e|---------------------------------------------------------------------------|
B|---------------------------------------------------------------------------|
G|---------------------------------------------------------------------------|
D|000----00-0-0--000----00-0-0--00000----00-0-0--0000000000000---12*---------|
A|000----00-0-0--000----00-0-0--00000----00-0-0--0000000000000---------------|
E|000----00-0-0--000----00-0-0--00000----00-0-0--0000000000000---------------|
  ..     ..      ..     ..      ....     ..      .............

Verse Part 1
Guitar 1&2
e|---------------------------------------------------------------------------|
B|---------------------------------------------------------------------------|
G|---------------------------------------------------------------------------|
D|---------------------------------------------------------------------------|
A|-------8---7---5---3----3----3h5------8---7---5---3---5---3~---------------|
E|----00---0---0---0---00---00-------00---0---0---0---0---0------------------|
      ..   .   .   .   ..   ..       ..   .   .   .   .   .
e|---------------------------------------------------------------------------|
B|---------------------------------------------------------------------------|
G|---------------------------------------------------------------------------|
D|--------------------------------------------------------12*----------------|
A|-------8---7---5---3----3----3h5------8---7---5---3------------------------|
E|----00---0---0---0---00---00-------00---0---0---0---000--------------------|
      ..   .   .   .   ..   ..       ..   .   .   .   ...
e|---------------------------------------------------------------------------|
B|---------------------------------------------------------------------------|
G|---------------------------------------------------------------------------|
D|---------------------------------------------------------------------------|
A|-------8---7---5---3----3----3h5------8---7---5---3---5---3~---------------|
E|----00---0---0---0---00---00-------00---0---0---0---0---0------------------|
      ..   .   .   .   ..   ..       ..   .   .   .   .   .
e|---------------------------------------------------------------------------|
B|---------------------------------------------------------------------------|
G|---------------------------------------------------------------------------|
D|--------------------------------------------------------7*-----------------|
A|-------8---7---5---3----3----3h5------8---7---5---3------------------------|
E|----00---0---0---0---00---00-------00---0---0---0---000--------------------|
      ..   .   .   .   ..   ..       ..   .   .   .   ...
   *Take note that one guitar plays the harmonics and the other plays that note normally.

e|---------------------------------------------------------------------------|
B|---------------------------------------------------------------------------|
G|---------------------------------------------------------------------------|
D|---------------------------------------------------------------------------|
A|-------8---7---5---3----3----3h5------8---7---5---3---5---3~---------------|
E|----00---0---0---0---00---00-------00---0---0---0---0---0------------------|
      ..   .   .   .   ..   ..       ..   .   .   .   .   .
e|---------------------------------------------------------------------------|
B|---------------------------------------------------------------------------|
G|---------------------------------------------------------------------------|
D|---------------------------------------------------------------------------|
A|-------8---7---5---3----3----3h5------8---7---5---3-------12~--------------|
E|----00---0---0---0---00---00-------00---0---0---0---000--------------------|
      ..   .   .   .   ..   ..       ..   .   .   .   ...

Verse Part 2
Guitars 1&2
e|--------------------------------|------------------------------------------------|
B|--------Option-A----------------|------Option-B----------------------------------|
G|--------------------------------|------------------------------------------------|
D|--------------------------------|-------------7--5--3----------------------------|
A|-------5-------7---8---7h8------|---10--8--7-------------------------------------|
E|-0-0-0---0-000---0---0----------|------------------------------------------------|
   . . .   . ...   .   .
*The preceding is played as follows:
   -Option A x3
   -Option B
   -Option A x3
   -Option B
   -Option A x3
   -Option B x2

e|---------------------------------------------------------------------------|
B|---------------------------------------------------------------------------|
G|---------------------------------------------------------------------------|
D|----5---3---2---7---5---3---5---3---2---7---5---3--------------------------|
A|----5---3---2---7---5---3---5---3---2---7---5---3--------------------------|
E|----5---3---2---7---5---3---5---3---2---7---5---3--------------------------|


Breakdown 1
Guitar 1
e|---------------------------------------------------------------------------|
B|---------------------------------------------------------------------------|
G|---------------------------------------------------------------------------|
D|000----00-0-0--000----00-0-0--00000----00-0-0--000----0-0----12*-----------|
A|000----00-0-0--000----00-0-0--00000----00-0-0--000----0-0------------------|
E|000----00-0-0--000----00-0-0--00000----00-0-0--000----0-0------------------|
  ..     ..      ..     ..      ....     ..      ..     . .
e|---------------------------------------------------------------------------|
B|---------------------------------------------------------------------------|
G|---------------------------------------------------------------------------|
D|000----00-0-0--000----00-0-0--00000----00-0-0--000----0-0------------------|
A|000----00-0-0--000----00-0-0--00000----00-0-0--000----0-0----12~-----------|
E|000----00-0-0--000----00-0-0--00000----00-0-0--000----0-0------------------|
  ..     ..      ..     ..      ....     ..      ..     . .

Guitar 2
e|---------------------------------------------------------------------------|
B|---------------------------------------------------------------------------|
G|---------------------------------------------------------------------------|
D|---------------------------------------------------------------------------|
A|-------8---7---5---3----3----3h5------8---7---5---3---5---3~---------------|
E|----00---0---0---0---00---00-------00---0---0---0---0---0------------------|
      ..   .   .   .   ..   ..       ..   .   .   .   .   .

e|---------------------------------------------------------------------------|
B|---------------------------------------------------------------------------|
G|---------------------------------------------------------------------------|
D|---------------------------------------------------------------------------|
A|-------8---7---5---3----3----3h5------8---7---5---3-------12~--------------|
E|----00---0---0---0---00---00-------00---0---0---0---000--------------------|
      ..   .   .   .   ..   ..       ..   .   .   .   ...

Guitars 1&2
e|------------------------------------------------|---------------------------|
B|------------------------------------------------|---------------------------|
G|------------------------------------------------|---------------------------|
D|--0--0-000--7--0-000--8--0-000--10--0-----------|---X6----------------------|
A|--0--0-000--7--0-000--8--0-000--10--0---7h8p7---|---------------------------|
E|--0--0-000--7--0-000--8--0-000--10--0-----------|---------------------------|
       . ...     . ...     . ...      .

e|-----------------------------------------------------|----------------------|
B|-----------------------------------------------------|----------------------|
G|-----------------------------------------------------|----------------------|
D|--0-0---------7-7---------8-8---------10-10----------|--X4------------------|
A|--0-0--7h8p7--7-7--7h8p7--8-8--7h8p7--10-10--10p8p7--|----------------------|
E|--0-0---------7-7---------8-8---------10-10----------|----------------------|


Singing Part
Guitar 1
e|---------------------------------------------------------------------------|
B|---------------------------------------------------------------------------|
G|---7-7-777-77---9-9-999-99--1010-101010--1010--12-12-121212-1212-----------|
D|---x-x-xxx-xx---x-x-xxx-xx---x-x--x-x-x---x-x---x--x--x-x-x--x-x-----------|
A|---5-5-555-55---7-7-777-77---8-8--8-8-8---8-8--10-10-101010-1010-----------|
E|---------------------------------------------------------------------------|

Guitar 2
e|---------------------------------------------------------------------------|
B|---------------------------------------------------------------------------|
G|---------------------------------------------------------------------------|
D|---0-0-000-00---7-7-777-77---8-8-888-88--10-10-101010-1010-----------------|
A|---0-0-000-00---7-7-777-77---8-8-888-88--10-10-101010-1010-----------------|
E|---0-0-000-00---7-7-777-77---8-8-888-88--10-10-101010-1010-----------------|

   *I'm not too sure about this part, but at least this sounds like it could go with the 
The rhythm is off, but its not too hard to listen to the song and catch it by ear.


Outro
Guitar 1&2
e|---------------------------------------------------------------------------|
B|---------------------------------------------------------------------------|
G|---------------------------------------7-----------------------------------|
D|--0000---0---0---0---0---0000--0000----7-----------------------------------|
A|--0000---0---0---0---0---0000--0000----5-----------------------------------|
E|--0000---0---0---0---0---0000--0000----------------------------------------|
    ....   .   .   .   .   ....  ....
   *Listen to the song to here when to do a pinch on 12th fret of string D

Guitar Fill In (Use Tremolo Picking and listen to the song)
e|---------------------------------------------------------------------------|
B|---------------------------------------------------------------------------|
G|---14--15--17--15--14--15--19--17--14--15--17--15--14--19--21--22\---------|
D|---------------------------------------------------------------------------|
A|---------------------------------------------------------------------------|
E|---------------------------------------------------------------------------|

| *  pinch
| /  slide up
| \  slide down
| h  hammer-on
| p  pull-off
| ~  vibrato
| +  harmonic
| x  Mute note
===============================================================================





Comments


Popular Haste The Day tabs & chords
American Love 1 Bass Tabs
White Collar Bass Tabs
68 Tabs
Haunting Tabs
Long Way Down 1 Tabs
One Life To Live Tabs
Pressure The Hinges Tabs
Resolve Tabs
Travesty Intro Tabs
Autumn Ukulele


Song lyrics



↑ Back to top | Tablatures and chords are parodies/interpretations of the original songs. You may use it for private study, scholarship, research or language learning purposes only
© 2014 AZChords.com Contact us | Privacy policy | DMCA | Add/correct tabs | Request tabs | Top 50 tabs