» » »

Haste The Day, Bleed Alone Tabs (ver.1)

Artists:  A B C D E F G H I J K L M N O P Q R S T U V W X Y Z # 

Bleed Alone Tabs (ver.1)

Haste The Day Tabs
 Rating:
4/5 (6 votes)
Bleed Alone lessons Tabs too difficult? Try these video lessons and learn fast
                Haste The Day
"Bleed Alone"
When Everything Falls (2005)


Yay. haste the Day. This is a fast song off the album. Hope you like.
I'll be tabbing out Walls and Fears, and This Time it's Real right after this one.

Things to know:
-. palm mute
-* pinch harmonic
-p pull off
-b bend
-/ slide up

Tuning Drop C:  C G C F A D

                                          (x2)
D:---------------------:--------------------:
A:---------------------:--------------------:
F:-(play 3 times)------:--------------------:
C:---------------------:--------------------:
G:-5h8-------5h8-------:-5h8----------------:
C:----000000-----8-8-7-:----000000-8p7-0-7*-:
      ......                ......     .

                              (x2)
D:------------------------------:
A:------------------------------:
F:------------------------------:
C:------------------------------:
G:-00-0000-0000-0000-0000-88-77-:
C:-00-0000-0000-0000-0000-88-77-:
   .. .... .... .... .... .. ..

                                          (x2)
D:---------------------:--------------------:
A:---------------------:--------------------:
F:---------------------:--------------------:
C:--(play 3 times)-----:--------------------:
G:-5h8-------5h8-------:-5h8----------------:
C:----000000-----8-8-7-:----000000-8p7-0-7*-:   
      ......                ......     .
  
                              (x4)
D:------------------------------:
A:------------------------------:
F:------------------------------:
C:------------------------------:
G:-00-0000-0000-0000-0000-88-77-:
C:-00-0000-0000-0000-0000-88-77-:
   .. .... .... .... .... .. ..

                                                     (x4)  
D:-----------------------------------------------------:
A:-----------------------------------------------------:
F:-----------------------------------------------------:
C:-8----7----------10----55/7--8----7-------------2/77-:
G:-6-00-5-00-000-0--8-00-33/5--6-00-5-00-000------4/55-:
C:---00---00-000-0----00---------00---00-000-5430------:
     ..   .. ... .    ..         ..   .. ... ....

                                                               (x2)
D:---------------------------------------------------------------:
A:---------------------------------------------------------------:
F:---------------------------------------------------------------:
C:---------------------------------------------------------------:
G:-00-0000-0000-0000-0000-88-77--------0000-0000-0000-0000-88-77-:
C:-00-0000-0000-0000-0000-88-77--0-7*b-0000-0000-0000-0000-88-77-:
   .. .... .... .... .... .. ..  .     .... .... .... .... .. ..

                                                    (x4)  
D:-----------------------------------------------------:
A:-----------------------------------------------------:
F:-----------------------------------------------------:
C:-8----7----------10----55/7--8----7-------------2/77-:
G:-6-00-5-00-000-0--8-00-33/5--6-00-5-00-000------4/55-:
C:---00---00-000-0----00---------00---00-000-5430------:
     ..   .. ... .    ..         ..   .. ... ....

                                          (x2)  
D:---------------------:--------------------:
A:---------------------:--------------------:
F:---------------------:--------------------:
C:--(play 3 times)-----:--------------------:
G:-5h8-------5h8-------:-5h8----------------:
C:----000000-----8-8-7-:----000000-8p7-0-7*-:   
      ......                ......     .

D:---:
A:---:
F:---:
C:-0-:
G:-0-:
C:-0-:

thank you.
other tabs from me are Burden Of A Day(3), Before Their Eyes(4), Novella(1)
            
Submit corrections

comments powered by Disqus
↑ Back to top | Haste The Day Tabs for Bleed Alone. Lyrics for acoustic guitar and electric guitar. Tablatures and chords are parodies/interpretations of the original songs. You may use it for private study, scholarship, research or language learning purposes only