» » »

Haste The Day, Autumn Tabs (ver.3)

Artists:  A B C D E F G H I J K L M N O P Q R S T U V W X Y Z # 

Autumn Tabs (ver.3)

Haste The Day Tabs
 Rating:
4.6/5 (9 votes)
Autumn lessons Tabs too difficult? Try these video lessons and learn fast
                -------------------------------------------------------------------------------
                             Autumn - Haste the Day
-------------------------------------------------------------------------------

Tuning:Half Step Down (Eb Ab Db Gb Bb Eb)
                                                                                
This is the version from the album "Dreamer", just an acoustic and vocals.
It's shorter than the original, but a more powerful performance.
I've seen other tabs that were off, or made it harder than it really is,
it's dead simple to play and beautiful...so have fun with it!


Listen to album for strumming rhythm and feel...
eb|--0-----0-----0-----0-----0-----0-----|
Bb|--0-----0-----0-----0-----0-----0-----|
Gb|--0-----0-----0-----0-----0-----0-----|
Db|--9-----5-----7-----5-----2/----4-----|
Ab|--10----7-----9-----7-----3/----5-----|
Eb|--0-----0-----0-----0-----0-----0-----|
     Red leaves blow    in the wind

eb|--0-----0-----0-----0-----0-----0-----0-----|
Bb|--0-----0-----0-----0-----0-----0-----0-----|
Gb|--0-----0-----0-----0-----0-----0-----0-----|
Db|--9-----5-----4-----7-----5-----2/----4-----|
Ab|--10----7-----5-----9-----7-----3/----5-----|
Eb|--0-----0-----0-----0-----0-----0-----0-----|
    Leaving home and everything it's known behind

eb|--0-----0-----0-----0-----0-----0-----0-----|
Bb|--0-----0-----0-----0-----0-----0-----0-----|
Gb|--0-----0-----0-----0-----0-----0-----0-----|
Db|--9-----5-----4-----7-----5-----2/----4-----|
Ab|--10----7-----5-----9-----7-----3/----5-----|
Eb|--0-----0-----0-----0-----0-----0-----0-----|
     Barren branches wave    goodbye

eb|--0-----0-----0-----0-----0-----0-----0-----|
Bb|--0-----0-----0-----0-----0-----0-----0-----|
Gb|--0-----0-----0-----0-----0-----0-----0-----|
Db|--9-----5-----4-----7-----5-----2/----4-----|
Ab|--10----7-----5-----9-----7-----3/----5-----|
Eb|--0-----0-----0-----0-----0-----0-----0-----|
     As the red leaves slowly die 

eb|--0--------0-----------0--------------0-----|
Bb|--0--------0-----------0--------------0-----|
Gb|--0--------11----------9--------------9-----|
Db|--9--------12----------10-------------10----|
Ab|--10-------0-----------0--------------10----|
Eb|--0--------0-----------0--------------0-----|
    Every flower   stares and watches     as the wind,

eb|--0--------0-----------0--------------0-----|
Bb|--0--------0-----------0--------------0-----|
Gb|--0--------11----------9--------------9-----|
Db|--9--------12----------10-------------10----|
Ab|--10-------0-----------0--------------10----|
Eb|--0--------0-----------0--------------0-----|
          it takes    me  away            before,

eb|--0--------0-----------0--------------0-----|
Bb|--0--------0-----------0--------------0-----|
Gb|--0--------11----------9--------------9-----|
Db|--9--------12----------10-------------10----|
Ab|--10-------0-----------0--------------10----|
Eb|--0--------0-----------0--------------0-----|
    before the sun,   the sun shone upon me   Oh now,

eb|--0--------0-----------0--------------0-----|
Bb|--0--------0-----------0--------------0-----|
Gb|--0--------11----------9--------------9-----|
Db|--9--------12----------10-------------10----|
Ab|--10-------0-----------0--------------10----|
Eb|--0--------0-----------0--------------0-----|
      now  the wind   it takes me   away

eb|--0--------0-----------0--------------0-----|
Bb|--0--------0-----------0--------------0-----|
Gb|--0--------11----------9--------------9-----|
Db|--9--------12----------10-------------10----|
Ab|--10-------0-----------0--------------10----|
Eb|--0--------0-----------0--------------0-----|
     Every flower stares and watches     as the wind,

eb|--0--------0-----------0--------------0-----|
Bb|--0--------0-----------0--------------0-----|
Gb|--0--------11----------9--------------9-----|
Db|--9--------12----------10-------------10----|
Ab|--10-------0-----------0--------------10----|
Eb|--0--------0-----------0--------------0-----|
    as the wind takes   me away    yeah      before,

eb|--0--------0-----------0--------------0-----|
Bb|--0--------0-----------0--------------0-----|
Gb|--0--------11----------9--------------9-----|
Db|--9--------12----------10-------------10----|
Ab|--10-------0-----------0--------------10----|
Eb|--0--------0-----------0--------------0-----|
     before the sun,   the sun shone upon me  Oh now,

eb|--0--------0-----------0--------------0-----|
Bb|--0--------0-----------0--------------0-----|
Gb|--0--------11----------9--------------9-----|
Db|--9--------12----------10-------------10----|
Ab|--10-------0-----------0--------------10----|
Eb|--0--------0-----------0--------------0-----|
     now   the wind    it takes me away.


************************************

| /   slide up
| \   slide down
| h   hammer-on
| p   pull-off
| ~   vibrato
| +   harmonic
| x   Mute note
| b   Bend
| pb  Pre-bend
| br  Bend release
| pbr Pre-bend release
| brb Bend release bend

************************************
            
Submit corrections

comments powered by Disqus
↑ Back to top | Haste The Day Tabs for Autumn. Lyrics for acoustic guitar and electric guitar. Tablatures and chords are parodies/interpretations of the original songs. You may use it for private study, scholarship, research or language learning purposes only