» » »

An Honest Confession Bass tabs (ver.1)

Artists:  A B C D E F G H I J K L M N O P Q R S T U V W X Y Z # 

An Honest Confession Bass tabs (ver.1)

Haste The Day
Rating:
0/5 (0 votes)

Hard to play? Try these video lessons and learn fast.
                Drop D

-Intro-
G|-----|-----|-----------------------|-----------------------||
D|-----|-----|-----------------------|-----------------------||
A|-3~--|-3~--|-3333-3-3-3-3333--3333-|-3333-3-3-3-3333--3333-||
D|-----|-----|-----------------------|-----------------------||


G|------------------------|-----------------------||
D|------------------------|-----------------------||
A|-3333-3-3-3--3333--3333-|-3333-3-3-3-3333--3333-||
D|------------------------|-----------------------||


G|-------||
D|-(5)---||
A|--3~---||
D|-------||

-singing starts-
G|--------------------||
D|------6--5--3h5-----||
A|-3-5----------------||
D|--------------------||(x8)


G|---------------------|--------------------||
D|---------------------|--------------------||
A|-10-8-11-10-13-11-10-|-10-8-10-11-10-8-6--||
D|---------------------|--------------------||

G|---------------------|-----------------------||
D|---------------------|-----------------------||
A|-10-8-11-10-13-11-10-|-10-8-10-10*-8*-6*-5*--||
D|---------------------|-----------------------||


G|---------------------|--------------------||
D|---------------------|--------------------||
A|-10-8-11-10-13-11-10-|-10-8-10-11-10-8-6--||
D|---------------------|--------------------||

G|---------------------|-------------------------||
D|---------------------|----------5p3h5-6p5p3h5--||
A|-10-8-11-10-13-11-10-|-10-8-10-----------------||
D|---------------------|-------------------------||


G|----------------------------||
D|-----------5p3h5-6p5p3h5----||
A|-3~-------------------------||
D|----6~--5~------------------||(x3)

G|---------------------------------||
D|------------7p6p5h6h5---6--------||
A|-3~-------------------6----------||
D|----6~--5~-----------------66-8~-||

(only guitar)
 
I won\'t walk away...
G|------------------||
D|------------------||
A|-33333333333333---||
D|------------------||Repeat many times!! Until...

G|------------||
D|------------||
A|--33--8~----||
D|------------||

Then...
G|--------||
D|--------||
A|--3~----||
D|--------||


-starts with the guitar-
G|------------------------|-----------------------||
D|------------------------|-----------------------||
A|-3333-3-3-3--3333--3333-|-3333-3-3-3-3333--3333-||
D|------------------------|-----------------------||(Repeat till end)
            
Hard to play? Try these video lessons and learn fast. | Correct




comments powered by Disqus
↑ Back to top | Tablatures and chords are parodies/interpretations of the original songs. You may use it for private study, scholarship, research or language learning purposes only