» » »

This Mess Were In Bass tabs (ver.1)

Artists:  A B C D E F G H I J K L M N O P Q R S T U V W X Y Z # 

This Mess Were In Bass tabs (ver.1)

Harvey P J
Rating:
0/5 (0 votes)

Hard to play? Try these video lessons and learn fast.
                This is an amazing song done by two of my favorite artists.  I originally
that this worked better for me.  Your mileage may vary.

Comments and suggestions are welcome.

There's three basic riffs that carry the song and it's pretty easy to figure
out where they change.

Riff #1

G|-----------------------------|
D|-----------------------------|
A|-------3-3-3-3-------3-3-3-3-|
D|-5-5-5---------5-5-5---------|

Riff #2

G|-----------------------------|
D|-----------------------------|
A|-5-5-5-3-3-3-3-5-5-5-3-3-3-3-|
D|-----------------------------|

Riff #3
(mostly when Thom sings the refrain)

G|-----------------------------------|
D|-3-3-3-3-3-3-3-3-------------------|
A|-----------------5-5-5-5-5-5-5-5-5-|
D|-----------------------------------|

Enjoy!
            
Hard to play? Try these video lessons and learn fast. | Correct




comments powered by Disqus
↑ Back to top | Tablatures and chords are parodies/interpretations of the original songs. You may use it for private study, scholarship, research or language learning purposes only