» » »

Harvey P J, Down By The Water Tabs (ver.1)

Artists:  A B C D E F G H I J K L M N O P Q R S T U V W X Y Z # 

Down By The Water Tabs (ver.1)

Harvey P J Tabs
Rating:
0/5 (0 votes)
Down By The Water lessons Tabs too difficult? Try these video lessons and learn fast
                MIME-Version: 1.0
Status: O


-------------------------------
 Down By The Water - PJ Harvey
-------------------------------

Bass Riff (fuzz-distorted)

   1   +   2   +   3   +   4   +   1   +   2   +   3   +   4   +   
E------------------------------------------------------------------
B------------------------------------------------------------------
G------------------------------------------------------------------  x 7
D------------------------------------------------------------------
A----------------------------------------------------------5-------
E--0-----------5---5---5---5---5---0-----------3-------------------

   1   +   2   +   3   +   4   +   1   +   2   +   3   +   4   +   
E------------------------------------------------------------------
B------------------------------------------------------------------
G------------------------------------------------------------------  x 1
D------------------------------------------------------------------
A------------------------------------------------------------------
E--0-----------3-----------5-------0-----------0-X-----------------


Strings:
(either play this bit with plenty of vibrato, or quietly feedback on it)

   1   +   2   +   3   +   4   +   1   +   2   +   3   +   4   +   
E------------------------------------------------------------------
B------------------------------------------------------------------
G--9~~~~~~~~~~~~~~~~~~~~~~~~~~~~~~~~~~~~~~~~~~~~~~~~~~~~~~~~~~~~~~-
D------------------------------------------------------------------
A------------------------------------------------------------------
E------------------------------------------------------------------


Pizzicato Strings:

   1   +   2   +   3   +   4   +   1   +   2   +   3   +   4   +   
E------------------------------------------------------------------
B------------------------------------------------------------------
G----------12------11------9---------------12------11------9-------
D------------------------------------------------------------------
A------------------------------------------------------------------
E------------------------------------------------------------------


End Twinkly-Bit:

(Adlib around these)
   1   +   2   +   3   +   4   +   1   +   2   +   3   +   4   +   
E----------12----------12------10~~~~~~~~~-12----------12------10~-
B------------------------------------------------------------------
G------------------------------------------------------------------
D------------------------------------------------------------------
A------------------------------------------------------------------
E------------------------------------------------------------------

   1   +   2   +   3   +   4   +   1   +   2   +   3   +   4   +   
E------------------------------------------------------------------
B------------------------------------------------------------------
G----------9-----------9-------7~~~~~~~~~~-9-----------9-------7---
D------------------------------------------------------------------
A------------------------------------------------------------------
E------------------------------------------------------------------


Lyrics:
-------
  I lost my heart
  Under the bridge
  To that little girl
  So much to me
  And now I moan
  And now I holler
  She'll never know
  Just what I've found
  That blue eyed girl           (that blue eyed girl)
  She said "no more"            (she said "no more")
  And that blue eyed girl       (that blue eyed girl)
  Became blue eyed whore        (big blue eyed whore)
  Down by the water             (down by the water)
  I took her hand               (I took her hand)
  Just like my daughter         (just like my daughter)
  See her again                 (see her again)

[strings bit]

[pizzicato bit]

  Oh help me Jesus
  Come through the storm
  I had to lose her
  To do her harm
  I heard her holler            (I heard her holler)
  I heard her moan              (I heard her moan)
  My lovely daughter            (My lovely daughter)
  I took her home               (I took her home)

[twinkly bit]

  Little fish, Big fish, swimming in the water,     \ x8
  Come back here, man, gimme my daughter.           /



Any Comments/Corrections/Suggestions welcome,
--
Greg O'Beirne
            

comments powered by Disqus
↑ Back to top | Harvey P J Tabs for Down By The Water. Lyrics for acoustic guitar and electric guitar. Tablatures and chords are parodies/interpretations of the original songs. You may use it for private study, scholarship, research or language learning purposes only