>
 >
Meetings With Remarkable Men (Show Me The Hero)

Meetings With Remarkable Men (Show Me The Hero) Guitar Tabs

Harvey Danger - Meetings With Remarkable Men (Show Me The Hero) chords, tabs, tablatures, lyrics

Guitar lessons | Add/correct | Request | Top 50 tabs Artists:  A B C D E F G H I J K L M N O P Q R S T U V W X Y Z 0-9

Meetings With Remarkable Men (Show Me The Hero) Guitar Tabs – Harvey Danger

CD, Sheet music, Poster

Do you like Meetings With Remarkable Men (Show Me The Hero)? Share with your friends now
Tabs
-------------------------------------------------------------------------------
-------------------------------------------------------------------------------

Tuning: Standard


Intro/Verse:

e||------------------|-----------------|------------------|-----------------|
B||------------------|-----------------|------------------|-----------------|
G||------------------|-----------------|------------------|-----------------|
D||---9-9-9-9---9-xx-|-7-7-8-9---9---9-|---9-9-9-9---9-xx-|-7-7-8-9---9---9-|
A||---9-9-7-9---7-xx-|-5-5-6-7---7---7-|---9-9-7-9---7-xx-|-5-5-6-7---7---7-|
E||---7-7-7-7---7-xx-|-0-0-0-0---0---0-|---7-7-7-7---7-xx-|-0-0-0-0---0---0-|



Chorus:

e|-----------------|-----------------|-------------------|------------------|
B|-----------------|-----------------|-------------------|------------------|
G|-----------------|-----------------|-------------------|------------------|
D|-----------------|-----------------|-------------------|------------------|
A|-7-7-9-7-7-7-9-7-|-7-7-9-7-7-7-9-7-|-9-9-11-9-9-9-11-9-|-9-9-11-9-9-8-8-7-|
E|-5-5-5-5-5-5-5-5-|-5-5-5-5-5-5-5-5-|-7-7--7-7-7-7--7-7-|-7-7--7-7-7-6-6-5-|

e|-----------------|-----------------|----------------------|------------------------|
B|-----------------|-----------------|----------------------|------------------------|
G|-----------------|-----------------|----------------------|------------------------|
D|-----------------|-----------------|----------------------|------------------------|
A|-7-7-9-7-7-7-9-7-|-7-7-9-7-7-7-9-7-|-9-9-11-9-9-9-11-9-12-|---12-12-12-12-12-12-12-|
E|-5-5-5-5-5-5-5-5-|-5-5-5-5-5-5-5-5-|-7-7--7-7-7-7--7-7-10-|---10-10-10-10-10-10-10-|



Bridge:

Guitar 1
 |
e|-----------------|-----------------|-----------------|-----------------|
B|-----------------|-----------------|-----------------|-----------------|
G|-6-4---6-4---4-4-|-6-4-7-6-4---4-4-|-4---------------|-----------------|
D|-----7-----------|-----------------|---7-5-----------|-5-5-5-7/--------|
A|-----------------|-----------------|-------7-----7-7-|-----------------|
E|-----------------|-----------------|-----------------|-----------------|
 |
Guitar 2
 |
e|-----------------|-----------------|-----------------|-----------------|
B|-----------------|-----------------|-----------------|-----------------|
G|-----------------|-----------------|-----------------|-----------------|
D|-2-2-2-2---2-2-2-|-2-2-2-2---2-2-2-|-5---5-5---5-5-5-|-7-7-7-7---7-7-7-|
A|-2-2-2-2---2-2-2-|-2-2-2-2---2-2-2-|-5---5-5---5-5-5-|-7-7-7-7---7-7-7-|
E|-0-0-0-0---0-0-0-|-0-0-0-0---0-0-0-|-3---3-3---3-3-3-|-5-5-5-5---5-5-5-|



Guitar 1
 |
e|-----------------|-----------------|-----------------|-----------------|
B|-----------------|-----------------|-----------------|-----------------|
G|-7-4---6-4---4-4-|-6-4-7-6-4---4-4-|-4---------------|-----------------|
D|-----7-----------|-----------------|---7-5-----------|-5-5-5-7\--------|
A|-----------------|-----------------|-------7-----7-7-|-----------------|
E|-----------------|-----------------|-----------------|-----------------|
 |
Guitar 2
 |
e|-----------------|-----------------|-----------------|-----------------|
B|-----------------|-----------------|-----------------|-----------------|
G|-----------------|-----------------|-----------------|-----------------|
D|-2-2-2-2---2-2-2-|-2-2-2-2---2-2-2-|-5---5-5---5-5-5-|-7-7-7-7---7-7-7-|
A|-2-2-2-2---2-2-2-|-2-2-2-2---2-2-2-|-5---5-5---5-5-5-|-7-7-7-7---7-7-7-|
E|-0-0-0-0---0-0-0-|-0-0-0-0---0-0-0-|-3---3-3---3-3-3-|-5-5-5-5---5-5-5-|



Guitar 1
 |
e|-----------------|-----------------|-----------------|-----------------|
B|-----------------|-----------------|-----------------|-----------------|
G|-----------------|-----------------|-----------------|-----------------|
D|-2---------------|--------(2)\-----|-----------------|-----------------|
A|-----------------|-----------------|-----------------|-----------------|
E|-----------------|-----------------|-----------------|-----------------|
 |
Guitar 2
 |
e|-----------------|-----------------|-----------------|-----------------|
B|-----------------|-----------------|-----------------|-----------------|
G|-9-------7-------|-----------------|-6/8-------------|-----------------|
D|-9-------7-------|-9-------7-------|-7/9-------------|-----------------|
A|-7-------5-------|-9-------7-------|-7/9-------------|-----------------|
E|-----------------|-7-------5-------|-5/7-------------|-----------------|



(Piano bridge riff)
e|-19-19-19----18-19----18-|----18-19----18-19----19-|
B|-17-17-17-17-------17----|----------17-------17----|
G|-------------------------|-------------------------|
D|-------------------------|-------------------------|
A|-------------------------|-------------------------|
E|-------------------------|-------------------------|

e|-------19-------19-------|----17-19----17-19----19-|
B|----17----17-20----17-20-|----------17-------17----|
G|-------------------------|-------------------------|
D|-------------------------|-------------------------|
A|-------------------------|-------------------------|
E|-------------------------|-------------------------|

e|----18-19----18-19----18-|----18-19----18-19----19-|
B|----------17-------17----|----------17-------17----|
G|-------------------------|-------------------------|
D|-------------------------|-------------------------|
A|-------------------------|-------------------------|
E|-------------------------|-------------------------|

e|----18-19----18-19----19-|-17-18-19-17-18-19-17-19-|
B|----------20-------20----|-------------------------|
G|-------------------------|-------------------------|
D|-------------------------|-------------------------|
A|-------------------------|-------------------------|
E|-------------------------|-------------------------|



Outro:

e|-----------------|------------------|------------------|------------------|
B|-9-9-9-9-9-9-9-9-|-9-9-9-9-9-9-9-x5-|-5-5-5-5-5-5-5-x7-|-7-7-7-7-7-7-7-x9-|
G|-9-9-9-9-9-9-9-9-|-9-9-9-9-9-9-9-x5-|-5-5-5-5-5-5-5-x7-|-7-7-7-7-7-7-7-x9-|
D|-9-9-9-9-9-9-9-9-|-9-9-9-9-9-9-9-x5-|-5-5-5-5-5-5-5-x7-|-7-7-7-7-7-7-7-x9-|
A|-7-7-7-7-7-7-7-7-|-7-7-7-7-7-7-7-x3-|-3-3-3-3-3-3-3-x5-|-5-5-5-5-5-5-5-x7-|
E|-----------------|------------------|------------------|------------------|



Guitar 1
 |
e|-----------------|-----------------|-----------------|-----------------|
B|-----------------|-----------------|-----------------|-----------------|
G|-6-4---6-4---4-4-|-6-4-7-6-4---4-4-|-4---------------|-----------------|
D|-----7-----------|-----------------|---7-5-----------|-5-5-5-7/--------|
A|-----------------|-----------------|-------7-----7-7-|-----------------|
E|-----------------|-----------------|-----------------|-----------------|
 |
Guitar 2
 |
e|-----------------|-----------------|-----------------|-----------------|
B|-----------------|-----------------|-----------------|-----------------|
G|-----------------|-----------------|-----------------|-----------------|
D|-2-2-2-2---2-2-2-|-2-2-2-2---2-2-2-|-5---5-5---5-5-5-|-7-7-7-7---7-7-7-|
A|-2-2-2-2---2-2-2-|-2-2-2-2---2-2-2-|-5---5-5---5-5-5-|-7-7-7-7---7-7-7-|
E|-0-0-0-0---0-0-0-|-0-0-0-0---0-0-0-|-3---3-3---3-3-3-|-5-5-5-5---5-5-5-|



Guitar 1
 |                                                                  (1/4 bend)
e|-----------------|-----------------|-----------------|-----------------|
B|-----------------|-----------------|-----------------|-----------------|
G|-6-4---6-4---4-4-|-6-4-7-6-4---4-4-|-4---------------|-----------------|
D|-----7-----------|-----------------|---7-5-----------|-5-5-5-7-----5b--|
A|-----------------|-----------------|-------7-----7-7-|-----------------|
E|-----------------|-----------------|-----------------|-----------------|
 |
Guitar 2
 |
e|-----------------|-----------------|-----------------|-----------------|
B|-----------------|-----------------|-----------------|-----------------|
G|-----------------|-----------------|-----------------|-----------------|
D|-2-2-2-2---2-2-2-|-2-2-2-2---2-2-2-|-5---5-5---5-5-5-|-7-7-7-7---7-7-7-|
A|-2-2-2-2---2-2-2-|-2-2-2-2---2-2-2-|-5---5-5---5-5-5-|-7-7-7-7---7-7-7-|
E|-0-0-0-0---0-0-0-|-0-0-0-0---0-0-0-|-3---3-3---3-3-3-|-5-5-5-5---5-5-5-|



Guitar 1
 |
e|-----------------|-----------------|
B|-----------------|-----------------|
G|-----------------|-----------------|
D|-----------------|-----------------|
A|-7---------------|-----------------|
E|-----------------|-----------------|
 |
Guitar 2
 |
e|-----------------|-----------------|
B|-----------------|-----------------|
G|-----------------|-----------------|
D|-2---------------|-----------------|
A|-2---------------|-----------------|
E|-0---------------|-----------------|




| /  slide up
| \  slide down
| h  hammer-on
| p  pull-off
| ~  vibrato
| +  harmonic
| x  Mute note
===============================================================================





Comments


Popular Harvey Danger tabs & chords
Carlotta Valdez 1 Bass Tabs
Flagpole Sitta Bass Tabs
Little Round Mirrors Chords
Carjack Fever Theme Tabs
Diminishing Returns Tabs
Flagpole Sitta 1 Tabs
Incommunicado Tabs
Save It For Later Tabs
Underground Tabs
Little Round Mirrors Ukulele


Song lyrics



↑ Back to top | Tablatures and chords are parodies/interpretations of the original songs. You may use it for private study, scholarship, research or language learning purposes only
© 2014 AZChords.com Contact us | Privacy policy | DMCA | Add/correct tabs | Request tabs | Top 50 tabs