>
 >
Flagpole Sitta

Flagpole Sitta Guitar Tabs

Harvey Danger - Flagpole Sitta chords, tabs, tablatures, lyrics

Guitar lessons | Add/correct | Request | Top 50 tabs Artists:  A B C D E F G H I J K L M N O P Q R S T U V W X Y Z 0-9

Flagpole Sitta Guitar Tabs – Harvey Danger

CD, Sheet music, Poster

Do you like Flagpole Sitta? Share with your friends now
Bass TabsBass Tabs v2Bass Tabs v3ChordsChords v2TabsTabs v2Ukulele
Guitar: Jeff Lin
Tuning: Standard

Intro:

1st Guitar
e-------------------------------------------------------------------------|           
B-------------------------------------------------------------------------|           
G-------------------------------------------------------------------------|          
D--0-00—-2-22--4-44--7-77--5-55--4-44—-2-22—-0-00-------------------------|           
A--------------------------------------------------3-3h7-7--3-3h7-7-------|           
E-------------------------------------------------------------------------|           

e-----------------|
B-----------------|
G-----------------|
D—----------------|
A—-5-5-5-5-5-5-5--|
E-----------------|

2nd Guitar                      
e-------------------------------------------------------------------------|              
B-------------------------------------------------------------------------|             
G--7-777-777-777-77--5-555-555-555-55--------------------7-777-777-777-7-7|
D—-7-777-777-777-77—-5-555-555-555-55—-5-555-555-555-55--7-777-777-777-7-7| 
A--5-555-555-555-55—-3-333-333-333-33—-5-555-555-555-55—-5-555-555-555-5-5|              
E--------------------------------------3-333-333-333-33-------------------|

Verse:
only Bass and Keyboard/Piano

Chorus:
"Fine, I΄m not sick…"
e------------------------------------------|              
B------------------------------------------|             
G--7-------9-------5-------9-------7-------|
D—-7-(8x)--9-(8x)—-5-(4x)—-9-(4x)—-7-(8x)--| 
A—-5-------7-------3-------7-------5-------|              
E------------------------------------------|

2nd  Verse:
only Bass and Keyboard/Piano

2nd Chorus
e------------------------------------------|              
B------------------------------------------|             
G--7-------9-------5-------9-------7-------| 
D—-7-(8x)--9-(8x)—-5-(4x)—-9-(4x)—-7-(8x)--|    (2x)
A—-5-------7-------3-------7-------5-------|              
E------------------------------------------|

Break:
e------------------------------------------------------------------------|
B------------------------------------------------------------------------|
G------------------------------------------------------------------------|      
D------------------------------------------------------------------------|
A----------------------------------8-8-8-8-8-8-8-8-5-5-5-5-5-5-5-5h10h12-|
E—-5-5-5-5-5-5-5-5-3-3-3-3-3-3-3-3---------------------------------------|

e------------------------------------------------------------------------|
B------------------------------------------------------------------------|
G------------------------------------------------------------------------|
D------------------------------------------------------------------------|
A—12-12-12-12-12-12-12-10-10-10-10-10-10-10-10h12-8-8-8-8-8-8-8-8-10-10--|
E------------------------------------------------------------------------|

e------------------------------------------------------------------------|
B------------------------------------------------------------------------|
G----- ------------------------------------------------------------------|   
D----------------------------------------------------7-7-7-7-7-7-7-7-7-7-|
A--10-10-10-10-10-10-5-5-5-5-5-5-5-5-5-5-5-5-5-5-5-5-5-5-5-5-5-5-5-5-5-5-|
E------------------------------------------------------------------------|

e-----------------------------------------------------------------------|
B-----------------------------------------------------------------------|
G—----------------7-777-777-777-77--------------------5-555-555-555-55--|
D--7-7-7-7-7-7----7-777-777-777-77--7-777-777-777-77--5-555-555-555-55--|
A--5-5-5-5-5-5--/-5-555-555-555-55--7-777-777-777-77--3-333-333-333-33--|
E-----------------------------------5-555-555-555-55--------------------|

e-------------------------------------------------------------------------|
B-------------------------------------------------------------------------|
G--7-777-777-777-77--7-777-777-777-77--------------------5-555-555-555-55-|
D--7-777-777-777-77--7-777-777-777-77--7-777-777-777-77--5-555-555-555-55-|
A--5-555-555-555-55--5-555-555-555-55--7-777-777-777-77--3-333-333-333-33-|
E--------------------------------------5-555-555-555-55-------------------|

e--------------------|
B--------------------|
G--7-777-777-777-77--|
D--7-777-777-777-77--|
A--5-555-555-555-55--|
E--------------------|

3rd Chorus
e------------------------------------------|              
B------------------------------------------|             
G--7-------9-------5-------9-------7-------| 
D—-7-(8x)--9-(8x)—-5-(4x)—-9-(4x)—-7-(8x)--|    (2x)
A—-5-------7-------3-------7-------5-------|              
E------------------------------------------|

End
e-------------------------------------------------------------------------|
B-------------------------------------------------------------------------|
G-5h7-7-7-7-7-7-7-7-5h7-7-7-7-7-7-7-7-5h7-7-7-7-7-7-7-7-5h7-7-7-7-7-7-7-7-|
D-x-x-x-x-x-x-x-x-x-x-x-x-x-x-x-x-x-x-x-x-x-x-x-x-x-x-x-x-x-x-x-x-x-x-x-x-|
A—3h5-5-5-5-5-5-5-5-3h5-5-5-5-5-5-5-5-3h5-5-5-5-5-5-5-5-3h5-5-5-5-5-5-5-5-|
E-------------------------------------------------------------------------|

e--------|
B--------|
G—-5—-7--|
D—-x—-7--|
A—-3—-5--|
E--------|


Please rate the tab!
Zach182





Comments


Popular Harvey Danger tabs & chords
Authenticity Bass Tabs
Flagpole Sitta 1 Bass Tabs
The Ballad Of The Tragic Hero Bass Tabs
Why Im Lonely Bass Tabs
Little Round Mirrors 1 Chords
The Show Must Not Go On Chords
Flagpole Sitta 1 Tabs
Meeting The Remarkable Men Tabs
Problems And Bigger Ones Tabs
Why I'm Lonely Tabs


Song lyrics



↑ Back to top | Tablatures and chords are parodies/interpretations of the original songs. You may use it for private study, scholarship, research or language learning purposes only
© 2014 AZChords.com Contact us | Privacy policy | DMCA | Add/correct tabs | Request tabs | Top 50 tabs