>
 >
Here Comes The Sun

Here Comes The Sun Guitar Tabs

Harry Sacksioni - Here Comes The Sun chords, tabs, tablatures, lyrics

Guitar lessons | Add/correct | Request | Top 50 tabs Artists:  A B C D E F G H I J K L M N O P Q R S T U V W X Y Z 0-9

Here Comes The Sun Guitar Tabs – Harry Sacksioni

CD, Sheet music, Poster

Do you like Here Comes The Sun? Share with your friends now
Tabs
(snelheid = 62)
E[--------------0-----------|-------------5--0--------|
B[--------3-----------3-----|-------------------3-----|
G[-----2-----2-----2-----2--|-------3--------------2--|
D[--0-----------------------|----2-----2--------------|
A[--------------------------|-0-----------------------|
E[--------------------------|-------------------------|

E[-------------0------------|-------------3--0--------|
B[-------3-----------3------|-------3-----------3-----|
G[----2-----2-----2-----2---|----2-----2-----------2--|
D[--------------------------|-------------------------|
A[-3------------------------|-3-----------------------|
E[--------------------------|-------------------------|

E[-------------0------------|----------0--3--0--------|
B[----------3--------3------|-------3-----------3-----|
G[-------2--------2-----2---|----2-----------------2--|
D[----0---------------------|-------------------------|
A[-2-----------2------------|-2-----------2-----------|
E[--------------------------|-------------------------|

E[-------------0------------|-------------5-----0-----|
B[----------3-----------3---|----------3--------3-----|
G[-------2-----------2------|-------2-----------2-----|
D[----0-----------0---------|----0-----------0--------|
A[-1-----------2------------|-1-----------2-----------|
E[--------------------------|-------------------------|

(snelheid = 154)
E[| -------2-----0--2-------|-------2--0--------------|
B[|.----------3-----------3-|----------------3-----0--|
G[| ----2-----------------2-|----2-----------2-----0--|
D[| -0-----------------0----|-------0-----------0-----|
A[|.------------------------|-0-----------0-----------|
E[| ------------------------|-------------------------|

E[----------0---------------|-------------------------|
B[-------3--------3---------|-2--0--2--0--------------|
G[----0-----------0-----0---|----------------2-------0|
D[-------0-----------0------|-------2--------2--0-2---|
A[--------------------------|-0-----------0-----------|
E[-3-----------3------------|-------------------------|

E[-------2-----0--2---------|-------2--0--------------|
B[----------3-----------3---|----------------3-----0--|
G[----2-----------------2---|----2-----------2-----0--|
D[-0-----------------0------|-------0-----------0-----|
A[--------------------------|-0-----------0-----------|
E[--------------------------|-------------------------|

E[-------2--0---------------|---------------0---------|
B[----------------3---------|-2--0--2--3--------------|
G[----0-----------0-----0---|-----------------------0-|
D[-------0-----------0------|-------2----------0-2---|
A[--------------------------|-0----------0------------|
E[-3-----------3------------|-------------------------|

E[-------2-----0--2---------|-------2-----0--2--------|
B[----------3-----------3---|----------3--------------|
G[----2-----------------2---|----2--------------------|
D[-0-----------------0------|-------0-----------------|
A[--------------------------|-0-----------------------|
E[--------------------------|-------------------0--2--|

E[-------2-0-----2------0--|----------0--------------|
B[----------0----(0)-----0--|-------0-(0)-----3-----0-|
G[----0-----0----(0)-----1--|----1--0-(0)-----0-----0-|
D[-------0------------0-----|----2---------------2----|
A[--------------------------|-2-----------------------|
E[-3-----------3------------|-0------------0----------|

E[-------2--0---------------|-------0--------0--------|
B[----------------3---------|-0--3--------3--------3--|
G[----2-----------2-----2---|----------2--------0-----|
D[-0-----------------0------|-------------------------|
A[-------------0------------|-------------------------|
E[--------------------------|-------------------------|

E[-0--------0---------------|----2-----0--2-----------|
B[-------3-----3--2--0------|----3-----3--3-----------|
G[-0--2-----------------2---|----2-----2--2-----0-----|
D[--------------------------|-0-----0--------0--------|
A[-------------0------------|-------------------------|
E[--------------------------|-------------------------|

_1._____________________     _2.__________________
E[---------------0---------- |----------------0-------|
B[-2--0--2--3---------------.|-2--0--2--3-------------|
G[-------0----------------0- |------------------------|
D[-------2----------0--2---- |-------2-----------0--2-|
A[-0----------0-------------.|-0-----------0----------|
E[-------------------------- |------------------------|

E[--------------------------|-------------------------|
B[----------1---------------|-------------------------|
G[------2---------------0---|---------0---------------|
D[--3---------------2-------|-----0-----------------0-|
A[--------------3-----------|-2---------------0--2----|
E[--------------------------|-------------3-----------|

E[-------2-----0--2---------|----------------0--------|
B[-------3-----3--3---------|-2--0--2--3--------------|
G[----2-----2-----2-----0---|-------0--0--------------|
D[-0-----------------0------|-------2-----------0--2--|
A[--------------------------|-0-----------0-----------|
E[--------------------------|-------------------------|

E[--------------------------|-------------------------|
B[---------1----------------|-------------------------|
G[-----2---------------0----|---------0---------------|
D[-3---------------2--------|-----0-----------------0-|
A[-------------3------------|-2---------------0--2----|
E[--------------------------|-------------3-----------|

E[-------2-----0--2---------|----------------0--------|
B[-------3-----3--3---------|-2--0--2--3--------------|
G[----2-----2-----2-----0---|-------0--0--------------|
D[-0-----------------0------|-------2-----------0--2--|
A[--------------------------|-0-----------0-----------|
E[--------------------------|-------------------------|

E[--------------------------|-------------------------|
B[---------1----------------|-------------------------|
G[-----2---------------0----|---------0---------------|
D[-3---------------2--------|-----0-----------------0-|
A[-------------3------------|-2---------------0--2----|
E[--------------------------|-------------3-----------|

E[-------2-----0--2---------|----------------0--------|
B[-------3-----3--3---------|-2--0--2--3-----2--------|
G[----2-----2-----2-----0---|-------0--0-----0-----0--|
D[-0-----------------0------|-------2-----------2-----|
A[--------------------------|-0-----------0-----------|
E[--------------------------|-------------------------|

E[-3--------------3---------|-5-------(5)-----5-------|
B[----------2---------------|----------2------2-------|
G[-------0--------------0---|-------2--2------2-----2-|
D[----2--------------2------|----2---------------2----|
A[-0-----------0------------|-------------------------|
E[--------------------------|-5------------5----------|

E[--------------------------|-------2-----0--2--------|
B[-3--2-----------2---------|----------3-----------3--|
G[----------4-----------2---|----2-----------------2--|
D[-------2-----------2------|-0-----------------0-----|
A[--------------------------|-------------------------|
E[-5-----------5------------|-------------------------|

E[-------2--0---------------|----------0--------------|
B[----------------3-----0---|-------3--------3--------|
G[----2-----------2-----0---|----0-----------0-----0--|
D[-------0-----------0------|-------0-----------0-----|
A[-0-----------0------------|-------------------------|
E[--------------------------|-3-----------3-----------|

E[--------------------------|-------2-----0--2--------|
B[-2--0--2--0---------------|----------3-----------3--|
G[----------------2-------0-|----2-----------------2--|
D[-------2--------2--0-2----|-0-----------------0-----|
A[-0-----------0------------|-------------------------|
E[--------------------------|-------------------------|

E[-------2--0---------------|-------2--0--------------|
B[----------------3-----0---|----------------3--------|
G[----2-----------2-----0---|----0-----------0-----0--|
D[-------0-----------0------|-------0-----------0-----|
A[-0-----------0------------|-------------------------|
E[--------------------------|-3-----------3-----------|

E[---------------0----------|-------2-----0--2--------|
B[-2--0--2--3---------------|----------3-----------3--|
G[------------------------0-|----2-----------------2--|
D[-------2----------0--2----|-0-----------------0-----|
A[-0----------0-------------|-------------------------|
E[--------------------------|-------------------------|

E[-------2-----0--2---------|-------2--0-----2------0-|
B[----------3---------------|----------0----(0)-----0-|
G[----2---------------------|----0-----0----(0)-----1-|
D[-------0------------------|-------0------------0----|
A[-0------------------------|-------------------------|
E[-------------------0--2---|-3-----------3-----------|

E[----------0---------------|-------2--0--------------|
B[-------0(0)-----3-----0--|----------------3--------|
G[----1--0(0)-----0-----0--|----2-----------2-----2--|
D[----2---------------2-----|-0-----------------0-----|
A[-2------------------------|-------------0-----------|
E[-0------------0-----------|-------------------------|

E[-------0--------0---------|-0--------0--------------|
B[-0--3--------3--------3---|-------3-----3--2--0-----|
G[----------2--------0------|-0--2-----------------2--|
D[--------------------------|-------------------------|
A[--------------------------|-------------0-----------|
E[--------------------------|-------------------------|

E[-------2-----0--2---------|-------0--------0--------|
B[-------3-----3--3---------|-0--3--------3--------3--|
G[----2--2-----2--2-----2---|----------2--------0-----|
D[-0--------0--------0------|-------------------------|
A[--------------------------|-------------------------|
E[--------------------------|-3--------2--------0-----|

E[-0---------0--------------|-------------------------|
B[--------3-----3--2--------|---------1---------------|
G[(0)--2--------------------|-----2---------------0---|
D[--------------------0--2--|-3---------------2-------|
A[--------------0-----------|-------------3-----------|
E[(0)--2--------------------|-------------------------|

E[--------------------------|--2---------------------||
B[--------0-----------------|--3---------------------||
G[--------0------------0----|--2---------------------||
D[-----0---------------0----|--0---------------------||
A[-2------------0--2--------|--0---------------------||
E[-----------3--------------|--0---------------------||





Comments


Popular Harry Sacksioni tabs & chords
Amulet Tabs
Blos Tabs
Borgo Migliorini Intro Tabs
Scarborough Fair Tabs
Scarborough Fair 1 Tabs
Uitgespeeld Tabs


Song lyrics



↑ Back to top | Tablatures and chords are parodies/interpretations of the original songs. You may use it for private study, scholarship, research or language learning purposes only
© 2014 AZChords.com Contact us | Privacy policy | DMCA | Add/correct tabs | Request tabs | Top 50 tabs