>
 >
Without Her

Without Her Guitar Tabs

Harry Nilsson - Without Her chords, tabs, tablatures, lyrics

Guitar lessons | Add/correct | Request | Top 50 tabs Artists:  A B C D E F G H I J K L M N O P Q R S T U V W X Y Z 0-9

Without Her Guitar Tabs – Harry Nilsson

CD, Sheet music, Poster

Do you like Without Her? Share with your friends now
ChordsChords v2TabsUkulele
Intro: Repeat several times.

 Em              A7
|-------------------------------------|
|----0-------0-------2-------2--------|
|----0-------0-------0-------0--------|
|----2-------2-------2-------2--------|
|----------------0---------0----------|
|0---------0--------------------------|

Verse:

 Em              A7               Dm7             G
|--------------------------------|----1-------1-------3-------3---|
|----0-------0-------2-------2---|----1-------1-------0-------0---|
|----0-------0-------0-------0---|----2-------2-------0-------0---|
|----2-------2-------2-------2---|0---------0---------------------|
|----------------0---------0-----|--------------------------------|
|0---------0---------------------|----------------3---------3-----|
    I spend  the night…           she’ll be there….

Em          A7
I spend the night in a chair thinking
Dm7                     G
she’ll be there but she never comes
           Em                    A7
And then I wake up  and wipe the Sleep from my eyes
      Dm7                  G
and I rise to face another day
    Em        A7  Dm7  G
Without her.


Chorus:

 D               DMaj7            D7              G7
|----2-------2-------2-------2---|----2-------2-------1-------1---|
|----3-------3-------2-------2---|----1-------1-------0-------0---|
|----2-------2-------2-------2---|----2-------2-------0-------0---|
|0---------0-----0---------0-----|0---------0---------------------|
|--------------------------------|--------------------------------|
|--------------------------------|----------------3---------3-----|
    We burst the pretty….         To the moon….   Beautiful thing….


D            DMaj7
We burst the pretty balloon
           D7                 G7
It took us to the moon such a beautiful thing
         Em               A7
But it’s ended now and it sounds like a lie
     Dm7               G
If I say I’d rather die than live
    Em       A7  Dm7  G
Without her.

NOTE#1:

G chord; sequence and verse endings:

 Sequence end:    Verse end:
|----3---3-------|----3---3---0---|
|----0---0-------|----0---0---0---|
|----0---0-------|----0---0---0---|
|----------------|----------------|
|----------------|----------------|
|3---------------|3---------------|

NOTE#2:

During the chorus pay close attention to the first four notes of the vocal melody. It 
be the difference between getting it right and going badly astray.

F#______________A________________________
We burst the pretty balloon it took us to

D___________________F___________
the moon such a beautiful thing

These four notes played on guitar are:

|------1-|
|----3---|
|--2-----|
|4-------|
|--------|
|--------|





Comments


Popular Harry Nilsson tabs & chords
I Never Thought Id Get This Lonely Chords
Let The Good Times Roll Chords
Mourning Glory Story Chords
Vine Street Chords
All My Life Ukulele
Blanket For A Sail Ukulele
Cuddly Toy Ukulele
Everybodys Talkin Ukulele
Little Cowboy Ukulele
Poli High Ukulele


Song lyrics



↑ Back to top | Tablatures and chords are parodies/interpretations of the original songs. You may use it for private study, scholarship, research or language learning purposes only
© 2014 AZChords.com Contact us | Privacy policy | DMCA | Add/correct tabs | Request tabs | Top 50 tabs