» » »

Harry Nilsson, Everybody's Talkin' Tabs (ver.3)

Artists:  A B C D E F G H I J K L M N O P Q R S T U V W X Y Z # 

Everybody's Talkin' Tabs (ver.3)

Harry Nilsson Tabs
 Rating:
4/5 (4 votes)
Everybody's Talkin' lessons Tabs too difficult? Try these video lessons and learn fast
1
                Everybody's Talking (Harry Nilsson)

Capo on 4th fret

INTRO

      C             Cmaj7                   C               Cmaj7
      E  S S S S E  E  S S S S E 
e||--------0-------------0---------||    |---------0-------------0--------|
B||---1--------1----0--------0-----||    |--0h-1-------1----0--------0----|
G||o------------------------------o|| 3x |--------------------------------|
D||o-----2-------2-----2-------2--o||    |-------2-------2-----2-------2--|
A||---3-------------3--------------||    |--3---------------3-------------|
E||--------------------------------||    |--------------------------------|

VERSE 1
    C             Cmaj7           C             Cmaj7
e|-------0-------------0-------|-------0-------------0-------|
B|--1--------1----0--------0---|--1--------1----0--------0---|
G|-----------------------------|-------------------0---------|
D|-----2-------2-----2---------|-----2-------2---------------|
A|--3-------------3------------|--3-------------3------------|
E|-----------------------------|-----------------------------|
                  Everybody's     talking     at me

    C7           C6              C7           C6
e|------0-------------0-------|-------0------------0--------|
B|----------1-------1-----1---|-----------1------1-----1----|
G|--3---------2--2------------|--3------------2----------2--|
D|----------------------------|-----2-----------------------|
A|--3------------3------------|--3------------3-------------|
E|----------------------------|-----------------------------|
                  I don't hear a word they're saying,

    Dm            Dm6/G           Dm            Dm6/G
e|-------1--------1----1-------|--1----1--------1----1--------|
B|--3--------3-------------0---|-----------3-------------0----|
G|-----2-------2-----2---------|-----2-------2-----2----------|
D|--0--------------------------|--0------------------------0--|
A|-----------------------------|------------------------------|
E|----------------3------------|----------------3-------------|
                  Only the        echoes                  of my

    C             Cmaj7             C6              C
e|-------0-------------0---0---0-|---------0---0-----------0--------|
B|--1--------1-------------------|-----------------------------1----|
G|-------------0-----0-------0---|--0h-2-2---2---0-------0-------0--|
D|--2--------------------2-------|------------------0h-2------------|
A|-----3----------3--------------|----------------------------------|
E|-------------------------------|----------------------------------|
    mind.
      C             Cmaj7           C             Cmaj7
e||--------0-------------0-------|-------0-------------0-------|
B||---1--------1----0--------0---|--1--------1----0--------0---|
G||o-----------------------------|-------------------0---------|
D||o-----2-------2-----2---------|-----2-------2---------------|
A||---3-------------3------------|--3-------------3------------|
E||------------------------------|-----------------------------|
      1.               People       stopping      staring,
      2.               Ooh ...

    C7           C6              C7           C6
e|------0-------------0-------|-------0------------0--------|
B|----------1-------1-----1---|-----------1------1-----1----|
G|--3---------2--2------------|--3------------2----------2--|
D|----------------------------|-----2-----------------------|
A|--3------------3------------|--3------------3-------------|
E|----------------------------|-----------------------------|
                         I can't see their    faces,

    Dm            Dm6/G           Dm            Dm6/G
e|-------1--------1----1-------|--1----1--------1----1--------|
B|--3--------3-------------0---|-----------3-------------0----|
G|-----2-------2-----2---------|-----2-------2-----2----------|
D|--0--------------------------|--0------------------------0--|
A|-----------------------------|------------------------------|
E|----------------3------------|----------------3-------------|
                         Only the shadows              of their

    C6               Cmaj7               C6              C
e|---------0---0---0--------0---0---0-|---------0---0-----------0--------|
B|-------1---1------------1---1-------|-----------------------------1----|
G|--0h-2---------0----------------0---|--0h-2-2---2---0-------0-------0--|
D|-------------------0h-2-------------|------------------0h-2------------|
A|------------------------------------|----------------------------------|
E|------------------------------------|----------------------------------|
    eyes.

CHORUS
    Dm                            G            G7
e|-------1---1----1----0---1---|--3----3-------1----0--------|
B|---------3---3-----3---------|-----0-----0------------3----|
G|-----2----------2------------|---------0--------2----------|
D|--0--------------------------|---------------0----------0--|
A|-----------------------------|-----------------------------|
E|-----------------------------|--3--------------------------|
    1. & 2.   I'm going where the sun keeps shining

    C                             C
e|-------0-------------0-------|-------0----------------------|
B|--1--------1----1--------1---|--1--------1---1------1-------|
G|-------------0-----0---------|-------------0------3------3--|
D|--2-------------2------------|-----2---2-------3------2-----|
A|-----3-----------------------|--3---------------------------|
E|-----------------------------|------------------------------|
                Thru' the pouring rain,
    Dm                            G             G7
e|-------1---1----1----0---1---|--3----3--------1----0--------|
B|---------3---3-----3---------|-----0-----0-------------3----|
G|-----2----------2------------|-------------------2----------|
D|--0--------------------------|-------------0-------------0--|
A|-----------------------------|------------------------------|
E|-----------------------------|--3-------------3-------------|
                  Going where the weather              suits my

    C             Cmaj7            C7
e|-------0-------------0--------|-------0--------0----0--------|
B|--1--------1----0--------0----|-----------1-------------1----|
G|------------------------------|--3---------------------------|
D|--2----------2-----2-------2--|-----2-------2-----2-------0--|
A|-----3----------3-------------|--3---------------------------|
E|------------------------------|------------------------------|
    clothes.

    Dm                             G            G7
e|--1----1--------1----0--------|--3----3-------1----0--------|
B|-----------3---------------3--|-----------0------------3----|
G|--2--2-------2----------------|-----------------------------|
D|----------------0--0-----0----|-----0------------0-------0--|
A|------------------------------|-----------------------------|
E|------------------------------|--3------------3-------------|
          Backing off of the       North East   winds,

    C             Cmaj7            C7           C
e|-------0-------------0--------|------0--------0----0--------|
B|--1--------1----1--------0----|----------1-------------1----|
G|------------------------------|--3--------------------------|
D|--2--2-------2-----2-------2--|------------2-----2-------0--|
A|----------------3-------------|--3------------3-------------|
E|------------------------------|-----------------------------|
                 Sailing on summer breeze,

    Dm                            G             G7
e|--1----1--------1----0---1---|--3----3--------1----1---0----|
B|-----------3-----------------|-----0-----0------------------|
G|-------------2-----2-----2---|-------------0-----0---0------|
D|--0--0----------0------------|---------------------------0--|
A|-----------------------------|------------------------------|
E|-----------------------------|--3-------------3-------------|
     And skipping over the        ocean                  like a

    C             Cmaj7            C7            C
e|-------0-------------0--------|-------0------------0---------||
B|--1--------1----0--------0----|-----------1------------1-----||
G|------------------------------|--3-------------2---------0--o||
D|--2--2-------2-----2-------2--|-----2-------2---------------o||
A|----------------3-------------|--3-------------3-------------||
E|------------------------------|------------------------------||
    stone.
    C                                           Cmaj7
e|-------0-------------0--------|-------0-------0----0--------|
B|--1--------1----0--------0----|--1--------0------------0----|
G|------------------------------|-----------------------------|
D|--2--2---------------------2--|--2--2------------2----------|
A|-------------3--3--3----------|---------------3----------3--|
E|------------------------------|-----------------------------|
                  Everybody's      talking      at me

    C
e|---------------------0--------|-------0-------------0--------|
B|-------1---1----1--------1----|--1--------1----1--------1----|
G|------------------------------|------------------------------|
D|---------2---------2-------2--|-----2-------2-----2----------|
A|--3--3-------3--3-------------|--3-------------3----------3--|
E|------------------------------|------------------------------|
                  Can't hear a     word they're saying,

      Dm            Dm/G            Dm            Dm/G
e||---1----1--------1----1-------|--1----1--------1----1---0---0-|
B||------------3-------------0---|-----------3---------------0---|
G||o-----2-------2-----2---------|-----2-------2-----2---0-------|
D||o--0--------------------------|--0----------------------------|
A||------------------------------|-------------------------------|
E||-----------------3------------|----------------3--------------|
                    Only the        echoes                   of my
      I won't       let you         leave                  my love

    Am           C
e|----------0---------------------|-----------------------------||
B|--1--1--1-------------1---1---1-|-----------------------------||
G|--2--2--2---0-------0---0---0---|--0h-2-0--------------------o||
D|---------------0h-2-------------|----------3--2--0-----------o||
A|--------------------------------|-------------------3--2--3---||
E|--------------------------------|-----------------------------||
    mind.
  behind.


OUTRO (4x, fading)
      Dm            Dm/G            Dm            Dm/G
e||---1----1--------1----1-------|--1----1--------1----1------0-|
B||------------3-------------0---|-----------3------------------|
G||o-----2-------2-----2---------|-----2-------2-----2----------|
D||o--0--------------------------|--0--------------------0--0---|
A||------------------------------|------------------------------|
E||-----------------3------------|----------------3-------------|
  No, I won't       let you         leave.
  Ohh ...
      I won't       let you         leave                 my love

   Am               C
e|--------0---0---0--------0---0---0-|---0---0---0---0---0---0---0---0--||
B|------1---1------------------------|---1---1---1---1---1---1----------||
G|-0h-2---------0----------------2---|-2---0---------------------------o||
D|------------------0h-2-2---2-------|---------3---2---0---------------o||
A|-----------------------------------|---------------------3---2---3----||
E|-----------------------------------|----------------------------------||
 behind.
            
Submit corrections

comments powered by Disqus
↑ Back to top | Harry Nilsson Tabs for Everybody's Talkin'. Lyrics for acoustic guitar and electric guitar. 1 Tablatures and chords are parodies/interpretations of the original songs. You may use it for private study, scholarship, research or language learning purposes only