» » »

Harry Chapin, Circle Tabs (ver.1)

Artists:  A B C D E F G H I J K L M N O P Q R S T U V W X Y Z # 

Circle Tabs (ver.1)

Harry Chapin Tabs
 Rating:
4.2/5 (5 votes)
Circle lessons Tabs too difficult? Try these video lessons and learn fast
                                             CIRCLE
                             
                           Harry Chapin


This is the ultimate sing - a - long song. Check out the LIVE version
off the " Greatest Stories Live " CD.


INTRO : (same as chorus)

CHURUS :

  All my        life's a      circle 

--------2----|--------2----|-------2----|--------2----|
--3--------3-|--2--------2-|--3-------3-|--2--------2-|
-----2-------|-----2-------|-----2------|-----2-------|
--0----------|--0----------|--0---------|--0----------|
-------------|-------------|------------|-------------|
-------------|-------------|------------|-------------|

  sunrise     and  sundown     ( h = hammer )

-------2-----|--------2----|-------------------------0------------|
--3-------3--|--2--------2-|-----0---------0--------------------0-|
-----2-------|-----2-------|--------------------------------------|
--0----------|--0----------|------------------0-h-2---------------|
-------------|-------------|--------0-h-2----------------0-h-2----|
-------------|-------------|--0-----------------------------------|

 the moon     rolls through  the night-time        'till the

-------3-----|--------3----|-------0------------0------|
--0-------0--|--0--------0-|--2-------2---2--------2---|
-----0-------|-----0-------|-----0-----------0---------|
-------------|-------------|---------------------------|
-------------|-------------|--0-----------0------------|
--3----------|--3----------|---------------------------|

  daybreak       comes       around

-------2-----|-------2-----|-------2----|-------2------|
--3------3---|--2-------2--|--3-------3-|--2-------2---|
-----2-------|-----2-------|-----2------|-----2--------|
--0----------|--0----------|--0---------|--0-----------|
-------------|-------------|------------|--------------|
-------------|-------------|------------|--------------|

  all my      life's  a       circle             but

-------2-----|-------2-----|-------2----|-------2------|
--3------3---|--2-------2--|--3-------3-|--2-------2---|
-----2-------|-----2-------|-----2------|-----2--------|
--0----------|--0----------|--0---------|--0-----------|
-------------|-------------|------------|--------------|
-------------|-------------|------------|--------------|

  I can't       tell you    why   ( h = hammer )

-------2-----|-------2-----|------------------------0-----------|
--3------3---|--2-------2--|-----0---------0------------------0-|
-----2-------|-----2-------|------------------------------------|
--0----------|--0----------|------------------0-h-2-------------|
-------------|-------------|--------0-h-2--------------0-h-2----|
-------------|-------------|--0---------------------------------|

 the seasons'    spinnin'    'round again

-------3-----|-------3-----|-------0-------------0-----|
--0-------0--|--0-------0--|--2-------2-----2-------2--|
-----0-------|-----0-------|-----0-------------0-------|
-------------|-------------|---------------------------|
-------------|-------------|--0-------------0----------|
--3----------|--3----------|---------------------------|

the years keep  rollin'       by

-------3-----|-------0-----|-------2----|
--0-------0--|--2-------2--|--3-------3-|
-----0-------|-----0-------|-----2------|
-------------|-------------|--0---------|
-------------|--0----------|------------|
--3----------|-------------|------------|


2nd verse :

It seems like I've been here before,  I can't remember when.

And I get this funny feelin', that we'll all be together again.

There's no straight lines, 'make up my life, & all my roads have bends.

There's no clear cut beginnings, and so far open ends.

( chorus )

3rd verse :

I found you a thousand times, I guess you done the same.

But then we lose each other, it's just like it shouldn't have been.

As I find you here again, the thought runs through my mind.

Our love is like a circle, let's go around one more time.

( chorus )   



Any questions, comments, or complaints, feel free to E-mail me
or post a thread at this sight.
            
Submit corrections

comments powered by Disqus
↑ Back to top | Harry Chapin Tabs for Circle. Lyrics for acoustic guitar and electric guitar. Tablatures and chords are parodies/interpretations of the original songs. You may use it for private study, scholarship, research or language learning purposes only