» » »

Jamaica Farewell Tabs (ver.1)

Artists:  A B C D E F G H I J K L M N O P Q R S T U V W X Y Z # 

Jamaica Farewell Tabs (ver.1)

Harry Belafonte
Rating:
4/5 (2 votes)

Hard to play? Try these video lessons and learn fast.
                Hi! I saw a guy playing this so I tryed to tab it and I think it sounds nice
Enjoy!

Intro:

E------7--7----5--5----7--7----5--5----7--7----5--5---------------|
B------8--8----6--6----8--8----6--6----8--8----6--6---------------|
G------7--7----5--5----7--7----5--5----7--7----5--5---------------|
D-----0------0---0---0-------0---0---0-------0---0--0-------------|
A-----------------------------------------------------------------|
E-----------------------------------------------------------------|
When you play at 5-6-5 play a lit bit faster than the other 7-8-7-|
After that you play:
D7 Then starts the tab

E------------------0-2-3-3-3-2-0---------------------|
B--0-3-3-3-3-3-3-3---------------3-3-3-1-1-1-0-1-3---|
G----------------------------------------------------|
D----------------------------------------------------|
A----------------------------------------------------|
E----------------------------------------------------|

E------------------0-2-3-3-3-2-0---------------------|
B--0-3-3-3-3-3-3-3---------------3-3-3-1-1-1-0-------|
G----------------------------------------------2-0---|
D----------------------------------------------------|
A----------------------------------------------------|
E----------------------------------------------------|

Do those two twice then:

E---------------0-----3---------------------------|
B---3-----4---------------------1-1-1-1-1-0-1-3---|
G---------------------------2-2-------------------|
D-------------------------------------------------|
A-------------------------------------------------|
E-------------------------------------------------|

E---------------0-----3---------------------------|
B---3-----4-----------------3-3-3-1-1-3-1-0-0-----|
G-------------------------------------------------|
D-------------------------------------------------|
A-------------------------------------------------|
E-------------------------------------------------|

That's just one of the guitar in this song you can learned this while I
send in the others... So long!
            
Hard to play? Try these video lessons and learn fast. | Correct




comments powered by Disqus
↑ Back to top | Tablatures and chords are parodies/interpretations of the original songs. You may use it for private study, scholarship, research or language learning purposes only