» » »

Harry And The Potters, Platform 9 3/4 Tabs (ver.1)

Artists:  A B C D E F G H I J K L M N O P Q R S T U V W X Y Z # 

Platform 9 3/4 Tabs (ver.1)

Harry And The Potters Tabs
Rating:
0/5 (0 votes)
Platform 9 3/4 lessons Tabs too difficult? Try these video lessons and learn fast
                -------------------------------------------------------------------------------
                    PLATFORM 9 AND 3/4 - Harry And The Potters
-------------------------------------------------------------------------------

Tuning:EADGBE

Intro/Verse:

     Q    Q    E  E  Q       Q    Q    E  E  Q       Q    Q    E  E  Q     
E||--0----0----0--0--0----|--3----3----3--3--3----|--1----1----1--1--1----|
B||--1----1----1--1--1----|--3----3----3--3--3----|--1----1----1--1--1----|
G||--0----0----0--0--0----|--4----4----4--4--4----|--2----2----2--2--2----|
D||--2----2----2--2--2----|--5----5----5--5--5----|--3----3----3--3--3----|
A||--3----3----3--3--3----|--5----5----5--5--5----|--3----3----3--3--3----|
E||--0----0----0--0--0----|--3----3----3--3--3----|--1----1----1--1--1----|


  Q    Q    E  E  Q      
--3----3----3--3--3----||
--3----3----3--3--3----||
--4----4----4--4--4----||
--5----5----5--5--5----||
--5----5----5--5--5----||
--3----3----3--3--3----||

Chorus:

     W                   W                   W                 
E||--0----------------|--3----------------|--1----------------|
B||--1----------------|--3----------------|--1----------------|
G||--0----------------|--4----------------|--2----------------|
D||--2----------------|--5----------------|--3----------------|
A||--3----------------|--5----------------|--3----------------|
E||--0----------------|--3----------------|--1----------------|


  W                  
--3----------------||
--3----------------||
--4----------------||
--5----------------||
--5----------------||
--3----------------||

Outro ("Oh yeah!"):

     W                                                         
E||--0----------------||
B||--1----------------||
G||--0----------------||
D||--2----------------||
A||--3----------------||
E||--0----------------||

Duration Legend
---------------
W - whole
Q - quarter
E - 8th

Have fun!

===============================================================================
            
Submit corrections

comments powered by Disqus
↑ Back to top | Harry And The Potters Tabs for Platform 9 3/4. Lyrics for acoustic guitar and electric guitar. Tablatures and chords are parodies/interpretations of the original songs. You may use it for private study, scholarship, research or language learning purposes only