» » »

Harry And The Potters, My Teacher Is A Werewolf Tabs (ver.1)

Artists:  A B C D E F G H I J K L M N O P Q R S T U V W X Y Z # 

My Teacher Is A Werewolf Tabs (ver.1)

Harry And The Potters Tabs
 Rating:
4.2/5 (5 votes)
My Teacher Is A Werewolf lessons Tabs too difficult? Try these video lessons and learn fast
1
                -----------------------------------------------------------------------------
-----------------------------------------------------------------------------

Tuning: EADGBE

"Intro":

     W                   W                   W                 
E||--3----------------|--3----------------||
B||--0----------------|--0----------------||
G||--0----------------|--0----------------||
D||--0----------------|--0----------------||
A||--2----------------|--2----------------||
E||--3----------------|--3----------------||

 My teacher         is a werewolf.     

Verse 1:

     W                   W                   W                 
E||--2----------------|--0----------------|--3----------------|
B||--4----------------|--1----------------|--0----------------|
G||--4----------------|--2----------------|--0----------------|
D||--4----------------|--0----------------|--0----------------|
A||--2----------------|--3----------------|--2----------------|
E||--2----------------|-------------------|--3----------------|

He's liable to          bite someone in     class.

  W                        
--3----------------|
--0----------------|
--0----------------|
--0----------------|
--2----------------|
--3----------------|  x2

Verse 2:

E||--2----------------|--0----------------|--3----------------|
B||--4----------------|--1----------------|--0----------------|
G||--4----------------|--2----------------|--0----------------|
D||--4----------------|--0----------------|--0----------------|
A||--2----------------|--3----------------|--2----------------|
E||--2----------------|-------------------|--3----------------|

He's been locked inside  the               Shrieking Shack.


  Q    Q    Q    Q               
--3----3----3----3----||
--0----0----0----0----||
--0----0----0----0----||
--0----0----0----0----||
--2----2----2----2----||
--3----3----3----3----||  x2

"Outro":

     W                   W                   W                 
E||--2----------------|--0----------------|--3----------------|
B||--4----------------|--1----------------|--0----------------|
G||--4----------------|--2----------------|--0----------------|
D||--4----------------|--0----------------|--0----------------|
A||--2----------------|--3----------------|--2----------------|
E||--2----------------|-------------------|--3----------------|

My  teacher        is a werewolf.



Duration Legend
---------------
W - whole
Q - quarter

Have Fun!

===============================================================================
            
Submit corrections

comments powered by Disqus
↑ Back to top | Harry And The Potters Tabs for My Teacher Is A Werewolf. Lyrics for acoustic guitar and electric guitar. 1 Tablatures and chords are parodies/interpretations of the original songs. You may use it for private study, scholarship, research or language learning purposes only