» » »

Harrison George, Cockamamie Business Tabs (ver.1)

Artists:  A B C D E F G H I J K L M N O P Q R S T U V W X Y Z # 

Cockamamie Business Tabs (ver.1)

Harrison George Tabs
Rating:
0/5 (0 votes)
Cockamamie Business lessons Tabs too difficult? Try these video lessons and learn fast
                
Cockamamie Business  
Riff1:
        Em       Am    C  H7 Em
e|-----30-------------53-52-30----------------------------------------------
B|----5---------0-----------------------------------------------------------
G|-3s4---------0-2----------------------------------------------------------
D|----------oh2-------------------------------------------------------------
A|--------------------------------------------------------------------------
E|--------------------------------------------------------------------------
Riff2:
   H7
e|--------------------------------------------------------------------------
B|--------------------------------------------------------------------------
G|--------------------------------------------------------------------------
D|-------0------------------------------------------------------------------
A|-2-2-2---2----------------------------------------------------------------
E|--------------------------------------------------------------------------

Intro:Riff1(2 times)
Em                          H7                       Em
Bust my back on the Levy - broke my strings on the BBC
          Am                         D                       H7(riff2) 
Found my chops on Eel Pie Island - paid my dues at the Marquee
             Em                       Am
Slagged off by the N.M.E. - lost my stash and my virginity
         C          H7    Em
In this Cockamamie Business
Riff1(1 time)

Got my face on Ed Sullivan - broke my heart on the Soul Train
Introduced to Bad Company - lost cells down at Brain Drain
And before I could mend - lost the missus, missed the girlfriend
In this Cockamamie Business
Riff1(2 times)

Now we like to air condition - though the air has no ozone ring
Still they're chopping down the forest for McDonalds and the Burger King
Eating cows with such persistance - doesn't offer much resistance
To this Cockamamie Business
Riff1(2 times)

There are too many things - stressing out the nervous system
Girls you used to know - fellas that may have kissed'em
Some got rabies - Some got fleas - some got incurable diseases
Riff1(2 times)

Everybody's after as many points as they can get
As long as it's not them that has to pay
No one really minds the Debt
5-Star actors, tax inspectors, film producers and directors
With their Cockamamie Business
Riff1(2 times)

Well you do what you can - can't do much more than that
(No you can't do what he just said)
Some days you're pretty sharp - on other days you feel half dead
(While you make your daily bread)
Didn't want to be a star - wanted just to play guitar
In this Cockamamie Business
Riff1(7 times)
            
Submit corrections

comments powered by Disqus
↑ Back to top | Harrison George Tabs for Cockamamie Business. Lyrics for acoustic guitar and electric guitar. Tablatures and chords are parodies/interpretations of the original songs. You may use it for private study, scholarship, research or language learning purposes only