» » »

Soldaat Op De Foto Tabs (ver.1)

Artists:  A B C D E F G H I J K L M N O P Q R S T U V W X Y Z # 

Soldaat Op De Foto Tabs (ver.1)

Harrie Jekkers
Rating:
0/5 (0 votes)

Hard to play? Try these video lessons and learn fast.
                Artiest:  Harrie Jekkers
Show:     Met een goudvis naar zee
Nummer:   Soldaat op de foto

©         Het gelijk van de goudvis, 1994

Tab van:  Alexander Westers



Aantekeningen:
Oorspronkelijk is dit nummer van Klein Orkest, waar Harrie Jekkers
zanger van was.
Tijdens de show “Met een goudvis naar zee” speelt hij een getokkelde
versie van dit nummer. Deze tab is van de getokkelde versie.


Veel plezier ermee!


Legenda:
*  = snaar wordt bij onderstaand akkoord met de duim bespeeld.
h  = hammer on
p  = pull off

Stemming: Standaard
e|      |      |     |
B|      |      |     |
G| *    |      |     |
D| *    |  *   |  *  |
A|      |  *   |  *  |
E|      |  *   |  *  |
   D      Am/e   C/g

Intro:
  D                                     D
|-----2-----2------|-2h3---------3----|-----0-----0------|-0h2-------2------|
|-----3---------3--|-------3-----3----|-----3---------3--|-------3-------3--|
|-----2-------2----|-----2-------2----|-----2-------2----|-----2-------2----|
|-0-------0--------|-0-------0--------|-0-------0--------|-0-------0--------|
|------------------|------------------|------------------|------------------|
|------------------|------------------|------------------|------------------|

  D                                     D
|-2h3---------3----|-----0-----0------|-----2-----2------|-----2-----2------|
|-------3-----3----|-----3---------3--|-----3---------3--|-----3---------3--|
|-----2-------2----|-----2-------2----|-----2-------2----|-----2-------2----|
|-0-------0--------|-0-------0--------|-0-------0--------|-0-------0--------|
|------------------|------------------|------------------|------------------|
|------------------|------------------|------------------|------------------|

Couplet 1:

Soldaat op de foto,                wat kijk je verbaasd
  D                                     Am/e
|-----2-----2------|-2h3p2-------3----|-----------0------|-----------0------|
|-----3---------3--|-------3-----3----|-----1------------|-----1------------|
|-----2-------2----|-----2-------2----|-----2---------2--|-----2---------2--|
|-0-------0--------|-0-------0--------|-----2-------2----|-----2-------2----|
|------------------|------------------|-0----------------|-0----------------|
|------------------|------------------|---------0--------|---------0--------|

Dat had je niet verwacht,     maar het is toch al te waar
  C/g                                   D
|-----------0------|-----------0------|-----2-----2------|-----2-----2------|
|-----1------------|-----1------------|-----3---------3--|-----3-----3------|
|-----0---------0--|-----0---------0--|-----2-------2----|-----2-------2----|
|-----2-------2----|-----2-------2----|-0-------0--------|-0-------0--------|
|-3----------------|-3----------------|------------------|------------------|
|---------3--------|---------3--------|------------------|------------------|

Soldaat op de foto,                dat bloed op je schouder
  D                                     Am/e
|-----2-----2------|-2h3p2-------3----|-----------0------|-----------0------|
|-----3---------3--|-------3-----3----|-----1------------|-----1------------|
|-----2-------2----|-----2-------2----|-----2---------2--|-----2---------2--|
|-0-------0--------|-0-------0--------|-----2-------2----|-----2-------2----|
|------------------|------------------|-0----------------|-0----------------|
|------------------|------------------|---------0--------|---------0--------|

Zo te zien niet veel ouder
  C/g
|-----------0------|-----------0------|
|-----1------------|-----1------------|
|-----0---------0--|-----0---------0--|
|-----2-------2----|-----2-------2----|
|-3----------------|-3----------------|
|---------3--------|---------3--------|

Dan vierentwintig jaar
  D
|-----2-----2------|-2h3---------3----|-----0-----0------|h2---2-----2------|
|-----3---------3--|-------3-----3----|-----3---------3--|-----3---------3--|
|-----2-------2----|-----2-------2----|-----2-------2----|-----2-------2----|
|-0-------0--------|-0-------0--------|-0-------0--------|-0-------0--------|
|------------------|------------------|------------------|------------------|
|------------------|------------------|------------------|------------------|


Couplet 2:

Soldaat op de foto                 jij zou altijd winnen
  D                                     Am/e
|-----2-----2------|-2h3p2-------3----|-----------0------|-----------0------|
|-----3---------3--|-------3-----3----|-----1------------|-----1------------|
|-----2-------2----|-----2-------2----|-----2---------2--|-----2---------2--|
|-0-------0--------|-0-------0--------|-----2-------2----|-----2-------2----|
|------------------|------------------|-0----------------|-0----------------|
|------------------|------------------|---------0--------|---------0--------|


De buit was al binnen              voordat je begon
  C/g                                   D
|-----------0------|-----------0------|-----2-----2------|-----2-----2------|
|-----1------------|-----1------------|-----3---------3--|-----3---------3--|
|-----0---------0--|-----0---------0--|-----2-------2----|-----2-------2----|
|-----2-------2----|-----2-------2----|-0-------0--------|-0-------0--------|
|-3----------------|-3----------------|------------------|------------------|
|---------3--------|---------3--------|------------------|------------------|

Soldaat op de foto,                 destijds een losse flodder
  D                                     Am/e
|-----2-----2------|-2h3p2-------3----|-----------0------|-----------0------|
|-----3---------3--|-------3-----3----|-----1------------|-----1------------|
|-----2-------2----|-----2-------2----|-----2---------2--|-----2---------2--|
|-0-------0--------|-0-------0--------|-----2-------2----|-----2-------2----|
|------------------|------------------|-0----------------|-0----------------|
|------------------|------------------|---------0--------|---------0--------|

Nu lig je in de modder
  C/g
|-----------0------|-----------0------|
|-----1------------|-----1------------|
|-----0---------0--|-----0---------0--|
|-----2-------2----|-----2-------2----|
|-3----------------|-3----------------|
|---------3--------|---------3--------|

Het was een ander die won 
  D
|-----2-----2------|-----2h3-----3----|-----2h3-----3----|-----2-----2------|
|-----3---------3--|-----3---------3--|-----3---------3--|-----3---------3--|
|-----2-------2----|-----2-------2----|-----2-------2----|-----2-------2----|
|-0-------0--------|-0-------0--------|-0-------0--------|-0-------0--------|
|------------------|------------------|------------------|------------------|
|------------------|------------------|------------------|------------------|


Refrein:
Vertel me meer over woorden waar de    mensen in        geloofden
  D                  Am/e               C/g                D
|-----3p2-----2----|-----------0------|-----------0------|-----------2------|
|-----3-------3----|-----1------------|-----1------------|-------3-------3--|
|-----2-------2----|-----2---------2--|-----0---------0--|-----2-------2----|
|-0-------0--------|-----2-------2----|-----2-------2----|-0-------0--------|
|------------------|-0----------------|-3----------------|------------------|
|------------------|---------0--------|---------3--------|------------------|

Die hen zoveel goeds beloofden, zelfs een leven na de dood
  D                  Am/e               C/g                D
|-----3p2-----2----|-----------0------|-----------0------|-----------2------|
|-----3-------3----|-----1------------|-----1------------|-------3-------3--|
|-----2-------2----|-----2---------2--|-----0---------0--|-----2-------2----|
|-0-------0--------|-----2-------2----|-----2-------2----|-0-------0--------|
|------------------|-0----------------|-3----------------|------------------|
|------------------|---------0--------|---------3--------|------------------|

Vertel mij meer over woorden waardoor later zoveel moorden zijn gepleegd
  D                  Am/e               C/g                D
|-2h3p2-------2----|-----------0------|-----------0------|-----------2------|
|-----3-----3------|-----1------------|-----1------------|-------3-------3--|
|-----2-------2----|-----2---------2--|-----0---------0--|-----2-------2----|
|-0-------0--------|-----2-------2----|-----2-------2----|-0-------0--------|
|------------------|-0----------------|-3----------------|------------------|
|------------------|---------0--------|---------3--------|------------------|

Waarvan weer later bleek dat dat niet nodig was
  D                  Am/e               C/g               
|-----3p2-----2----|-----------0------|-----------0------|
|-----3-------3----|-----1------------|-----1------------|
|-----2-------2----|-----2---------2--|-----0---------0--|
|-0-------0--------|-----2-------2----|-----2-------2----|
|------------------|-0----------------|-3----------------|
|------------------|---------0--------|---------3--------|


Bridge:
  D                                     D
|-----2-----2------|-2h3---------3----|-----0-----0------|-2h3-------2------|
|-----3---------3--|-------3-----3----|-----3---------3--|-------3-------3--|
|-----2-------2----|-----2-------2----|-----2-------2----|-----2-------2----|
|-0-------0--------|-0-------0--------|-0-------0--------|-0-------0--------|
|------------------|------------------|------------------|------------------|
|------------------|------------------|------------------|------------------|


Couplet 3:

Soldaat op de foto,                 de maat van jouw idealen
  D                                     Am/e
|-----2-----2------|-2h3p2-------3----|-----------0------|-----------0------|
|-----3---------3--|-------3-----3----|-----1------------|-----1------------|
|-----2-------2----|-----2-------2----|-----2---------2--|-----2---------2--|
|-0-------0--------|-0-------0--------|-----2-------2----|-----2-------2----|
|------------------|------------------|-0----------------|-0----------------|
|------------------|------------------|---------0--------|---------0--------|

Staan niet op linialen                      van de strateeg
  C/g                                   D
|-----------0------|-----------0------|-----2-----2------|-----2-----2------|
|-----1------------|-----1------------|-----3---------3--|-----3-----3------|
|-----0---------0--|-----0---------0--|-----2-------2----|-----2-------2----|
|-----2-------2----|-----2-------2----|-0-------0--------|-0-------0--------|
|-3----------------|-3----------------|------------------|------------------|
|---------3--------|---------3--------|------------------|------------------|

Soldaat op de foto,                 je schedel aan stukken
  D                                     Am/e
|-----2-----2------|-2h3p2-------3----|-----------0------|-----------0------|
|-----3---------3--|-------3-----3----|-----1------------|-----1------------|
|-----2-------2----|-----2-------2----|-----2---------2--|-----2---------2--|
|-0-------0--------|-0-------0--------|-----2-------2----|-----2-------2----|
|------------------|------------------|-0----------------|-0----------------|
|------------------|------------------|---------0--------|---------0--------|

Je hersens in een grijze brei
  C/g
|-----------0------|-----------0------|
|-----1------------|-----1------------|
|-----0---------0--|-----0---------0--|
|-----2-------2----|-----2-------2----|
|-3----------------|-3----------------|
|---------3--------|---------3--------|

Gedachteloos en leeg
  D
|-----2-----2------|-2h3---------3----|-----0-----0------|h2---2-----2------|
|-----3---------3--|-------3-----3----|-----3---------3--|-----3---------3--|
|-----2-------2----|-----2-------2----|-----2-------2----|-----2-------2----|
|-0-------0--------|-0-------0--------|-0-------0--------|-0-------0--------|
|------------------|------------------|------------------|------------------|
|------------------|------------------|------------------|------------------|


(Bij Klein Orkest komt er hier nog een herhaling van het eerste couplet)


Het tweede refrein is geen tokkel meer, maar akkoorden:

             D         Am/e            C/g         D
En vertel me meer over woorden waar de mensen in geloofden

        D              Am/e               C/g         D
Die hen zoveel goeds beloofden, zelfs een leven na de dood

          D         Am/e             C/g          D
Vertel me meer over woorden waardoor later zoveel moorden

       D                    Am/e       C/g
Zijn gepleegd, waarvan weer later bleek dat dat niet nodig was
                                                               |----2----|
                                                               |---3-----|
                                                               |--2------|
                                                               |-0-------|
                                                               |---------|
                                                               |---------|
            
Hard to play? Try these video lessons and learn fast. | Correct




comments powered by Disqus
↑ Back to top | Tablatures and chords are parodies/interpretations of the original songs. You may use it for private study, scholarship, research or language learning purposes only