» » »

Partnerjacht Chords (ver.1)

Artists:  A B C D E F G H I J K L M N O P Q R S T U V W X Y Z # 

Partnerjacht Chords (ver.1)

Harrie Jekkers
Rating:
0/5 (0 votes)
Tabs too difficult? Try these video lessons and learn fast.
                Show:    Met een goudvis naar zee
Nummer:  Partnerjacht!!!

© Het gelijk van de goudvis, 1992

Uitgezocht door: Alexander Westers

Aantekeningen:
Ik heb niet alle versierende noten in de akkoorden opgenomen. Enkele mogelijkheden voor
versierende noten die Harrie Jekkers gebruikt:
- Bij D-akkoorden in de coupletten de pink op de g zetten;
- Bij Am en G de wijsvinger optillen;
- Bij C de middelvinger optillen;
- Bij G zowel de wijsvinger als de middelvinger optillen;
- Bij Em: zie de openingsriff.

Als je dit nummer uitvoert, begin dan met een goede rochel naar links.


Openingsriff
|-0--00-00-0--|-0--00-00-0--|-0--00-00-0--|-0--00-00-0--|
|-0--00-00-0--|-0--00-00-0--|-0--00-00-0--|-0--00-00-0--|
|-0--00-00-0--|-0--00-00-0--|-0--00-00-0--|-0--00-00-0--|
|-2--22-22-2--|-2--22-22-0--|-2--22-22-2--|-2--22-22-0--|
|-2--22-22-0--|-2--22-22-0--|-2--22-22-0--|-2--22-22-0--|
|-0--00-00-0--|-0--00-00-0--|-0--00-00-0--|-0--00-00-0--|

|-0------------------|
|-0------------------|
|-0------------------|
|-2------------------|
|-2------------------|
|-0------------------|
     PARTNERJACHT!!!

Riff
|-0--0--00-0--|-0--0--00-0--|-0--0--00-0--|-0--0--00-0--|
|-0--0--00-0--|-0--0--00-0--|-0--0--00-0--|-0--0--00-0--|
|-0--0--00-0--|-0--0--00-0--|-0--0--00-0--|-0--0--00-0--|
|-2--2--22-2--|-2--2--22-0--|-2--2--22-2--|-2--2--22-0--|
|-2--2--22-0--|-2--2--22-0--|-2--2--22-0--|-2--2--22-0--|
|-0--0--00-0--|-0--0--00-0--|-0--0--00-0--|-0--0--00-0--|

|-0--0--00-0--|-0--0--00-0--|-33----22----|-0--00-00-0--|
|-0--0--00-0--|-0--0--00-0--|-33----33----|-0--00-00-0--|
|-0--0--00-0--|-0--0--00-0--|-00----22----|-0--00-00-0--|
|-2--2--22-2--|-2--2--22-0--|-00----00----|-2--22-22-0--|
|-2--2--22-0--|-2--2--22-0--|-22----00----|-2--22-22-0--|
|-0--0--00-0--|-0--0--00-0--|-33----------|-0--00-00-0--|

Refrein:
Em/G Em       Em/G Em
Partnerjacht, partnerjacht
   G    D/A          Em/G Em
De hele wereld is op partnerjacht
Em/G Em       Em/G Em
Partnerjacht, partnerjacht
   G    D/A          Em/G Em
De hele wereld is op partnerjacht
Em/G Em       Em/G Em
Partnerjacht, partnerjacht
   G    D/A          Em/G Em
De hele wereld is op partnerjacht
Em/G Em       Em/G Em
Partnerjacht, partnerjacht
   G                D/A           Em
Ik moet een partner hebben en het moet voor middernacht


Couplet 1:
   G                                    D
Ik wil een partner hebben, maar ’t moet wel een mooie zijn
    F                            C/G
Qua partner doe ik absoluut geen water bij de wijn
           G                  D
Ik wil een partner hebben die teder is en zacht
     Am                                  D
Maar wel een beetje snel graag, want het is al kwart voor acht
Am                             D
Wel een beetje snel graag, het is al kwart voor acht


Refrein:
Em/G Em       Em/G Em
Partnerjacht, partnerjacht
   G    D/A          Em/G Em
De hele wereld is op partnerjacht
Em/G Em       Em/G Em
Partnerjacht, partnerjacht
  G                D/A            Em
Ik moet een partner hebben en het moet voor middernacht


Couplet 2:
           G                        D
Ik wil een partner met ogen als een mooie zomernacht
    F                                  C/G
Een partner waar je hart van breekt wanneer ze naar je lacht
    G                            D
Mij zul je dus mooi niet met een doorsnee partner zien
          Am                           D
Maar waar blijft ze nou? ’t Is al half tien
     Am                           D
Waar blijft ze nou? ’t Is al half tien


Refrein:
Em/G Em       Em/G Em
Partnerjacht, partnerjacht
   G                D/A           Em
Ik moet een partner hebben en het moet voor middernacht


Couplet 3:
   G                           D
Misschien zijn mijn wensen qua partner te extreem
             F                            C/G
Moet ik eens genoegen leren nemen met een partner met eczeem
           G                              D
Of met een partner met een lam handje, of met een korter been
         Am                                   D
Want het is al half twaalf, ‘k ben nog steeds alleen
       Am                                 D
Liever eentje met een schoonheidsfout dan helemaal geen een


Refrein:
Em/G Em       Em/G Em
Partnerjacht, partnerjacht
   G                D/A           Em
Ik moet een partner hebben en het moet voor middernacht


Couplet 4:
        G                     D
Ik moet absoluut een partner, huidskleur geen bezwaar
               F                             C/G
Het maakt niet uit hoe ze eruit ziet, doet U mij die groene maar
    G                               D
Wat zegt U? Is ze varkensslachtster op het abattoir?
   Am                                 D
En vermoordt ze stelselmatig partners met een heggenschaar?
Am                                          D
Maakt niet uit, geef hier dat mes, pff, dat scheelde maar een haar
Am                                       D
Jezus Mina zeg, nog net op tijd zeg, nog net voor twaalven klaar


Refrein:
Em/G Em       Em/G Em
Partnerjacht, partnerjacht
   G    D/A          Em/G Em
De hele wereld is op partnerjacht
Em/G Em       Em/G Em
Partnerjacht, partnerjacht
   G        D/A                  Em
En wie niet meedoet, is verdacht.


De akkoorden:
o = open snaar
1 = wijsvinger
2 = middelvinger
3 = ringvinger
4 = pink

           Em                  Em/G        
e |o-----|-----|-----| |o-----|-----|-----|
B |o-----|-----|-----| |o-----|-----|-----|
G |o-----|-----|-----| |o-----|-----|-----|
D ||-----|--3--|-----| ||-----|--3--|-----|
A ||-----|--2--|-----| ||-----|--2--|-----|
E |o-----|-----|-----| ||-----|-----|--4--|

            G                    D         
e ||-----|-----|--4--| ||-----|--2--|-----|
B ||-----|-----|--3--| ||-----|-----|--3--|
G |o-----|-----|-----| ||-----|--1--|-----|
D |o-----|-----|-----| |o-----|-----|-----|
A ||-----|--1--|-----| ||-----|-----|-----|
E ||-----|-----|--2--| ||-----|-----|-----|

          D/A                    F         
e ||-----|--2--|-----| ||--1--|-----|-----|
B ||-----|-----|--3--| ||--1--|-----|-----|
G ||-----|--1--|-----| ||--1--|--2--|-----|
D |o-----|-----|-----| ||--1--|-----|--4--|
A |o-----|-----|-----| ||--1--|-----|--3--|
E ||-----|-----|-----| ||--1--|-----|-----|

           C/G                  Am         
e |o-----|-----|-----| |o-----|-----|-----|
B ||--1--|-----|-----| ||--1--|-----|-----|
G |o-----|-----|-----| ||-----|--3--|-----|
D ||-----|--2--|-----| ||-----|--2--|-----|
A ||-----|-----|--4--| |o-----|-----|-----|
E ||-----|-----|--3--| ||-----|-----|-----|
            
Tabs too difficult? Try these video lessons and learn fast.


comments powered by Disqus
↑ Back to top | Tablatures and chords are parodies/interpretations of the original songs. You may use it for private study, scholarship, research or language learning purposes only