>
 >
Mijn Moeder

Mijn Moeder Guitar Tabs

Harrie Jekkers - Mijn Moeder chords, tabs, tablatures, lyrics

Guitar lessons | Add/correct | Request | Top 50 tabs Artists:  A B C D E F G H I J K L M N O P Q R S T U V W X Y Z 0-9

Mijn Moeder Guitar Tabs – Harrie Jekkers

CD, Sheet music, Poster

Do you like Mijn Moeder? Share with your friends now
Tabs
Harrie Jekkers - Mijn moeder

Uit de voorstelling “Het geheim van de lachende piccolo”
© Het gelijk van de goudvis, 1994

Uitgezocht door Alexander Westers


Aantekeningen:
Het nummer spreekt redelijk voor zich.
Onderaan staat een lijst met de vingerzettingen.
Ik heb overal de akkoorden boven gezet, zodat je helemaal beneden
de juiste vingerzetting kunt vinden.

Stemming: Open G
d|
B|
G|
D| *
G| *
D|

* Deze snaren worden door de duim gespeeld als baslijn.


Stuk A
  G               D/g               C/g             D/g
|-9---------9-----7---------7-----|-----------5-------7-------7-----|
|-------------------7-----------7\\\5---------------------7---------|
|-------7---------------7---------|-------5-------5/7---------------|
|-----0-------0-------0-------0---|-----0-------0-------0-------0---|
|-0-------0-------0-------0-------|-0-------0-------0-------0-------|
|---------------------------------|---------------------------------|

  G               D/g               C/g               D/g
|-9---------9-----7---------7-----|-----------5-----------7---------|
|-------------------7-----------7\\\5--------------------7----------|
|-------7---------------7---------|-------5-------5/7---7-----------|
|-----0-------0-------0-------0---|-----0-------0------0------------|
|-0-------0-------0-------0-------|-0-------0---------0-------------|
|---------------------------------|---------------------------------|


Couplet:
Stuk B
  G               D/g               C/g             G
|-9---------9-----7---------7-----|---5-------5---------------------|
|-------------------7-----------7\\\5-------------------3-----3-----|
|-------7---------------7---------|-------5-------------4-----4-----|
|-----0-------0-------0-------0---|-----0-------0-------0-------0---|
|-0-------0-------0-------0-------|-0-------0-------0-------0-------|
|---------------------------------|---------------------------------|

  G                                 D
|-9---------9---------------9-----|-----7-----7---------7-----------|
|-------8-------8-----8-------8---|-----7-------7-------7-----------|
|-----7---------------7---------7-|-----7---------7-----7-----------|
|-----0-------0-------0-------0---|-----0-------0-------0-------0---|
|-0-------0-------0-------0-------|---------------------------------|
|---------------------------------|-0-------0-------0-------0-------|

Stuk C
  G               D/g               C/g             G
|-9---------9-----7---------7-----|---5-------5---------------------|
|-------------------7-----------7\\\5-------------------3-----3-----|
|-------7---------------7---------|-------5-------------4-----4-----|
|-----0-------0-------0-------0---|-----0-------0-------0-------0---|
|-0-------0-------0-------0-------|-0-------0-------0-------0-------|
|---------------------------------|---------------------------------|

  G               D                 G             G7
|-9---------9---------------------|-----------9-------9-------9-----|
|-------8-------8-----7-----7-----|-8-----8-------6-------6---------|
|-----7---------------7-------7---|-7-------------------------------|
|-----0-------0-------0-------0---|-----0-------0-------0-------0---|
|-0-------0-----------------------|-0-------0-------0-------0-------|
|-----------------0-------0-------|---------------------------------|

Stuk D
  C*                                D*
|-----------5---------------5-----|-----------7---------------7-----|
|-----5-------5-------5-------5---|-----7-------7-------7-------7---|
|-----5---------5-----5---------5-|-----7---------7-----7---------7-|
|-----5-------5-------5-------5---|-----7-------7-------7-------7---|
|-5-------5-------5-------5-------|-7-------7-------7-------7-------|
|---------------------------------|---------------------------------|

  G                                 C*
|-9-----7---5-----4-----2---0-----|-----------5---------------5-----|
|-8-----7---5-----3-----1---0-----|-----5-------5-------5-------5---|
|---------------------------------|-----5---------5-----5---------5-|
|-----0-------0-------0-------0---|-----5-------5-------5-------5---|
|-0-------0-------0-------0-------|-5-------5-------5-------5-------|
|---------------------------------|---------------------------------|

Stuk E
  G                                 Em
|-----9-----9-------9-------9-----|-----9-----9-------9-------9-----|
|-----8---------8-------8-------8-|-----8---------8-------8-------8-|
|---------------------------------|---------------------------------|
|-----0-------0-------0-------0---|-----9-------9-------9-------9---|
|-0-------0-------0-------0-------|-9-------9-------9-------9-------|
|---------------------------------|---------------------------------|

  D*
|-----------7---------------7-----|-----------7---------------7-----|
|-----7-------7-------7-------7---|-----7-------7-------7-------7---|
|-----7---------7-----7---------7-|-----7---------7-----7---------7-|
|-----7-------7-------7-------7---|-----7-------7-------7-------7---|
|-7-------7-------7-------7-------|-7-------7-------7-------7-------|
|---------------------------------|---------------------------------|

Stuk F
  C*                                D*
|-----------5---------------5-----|-----------7---------------7-----|
|-----5-------5-------5-------5---|-----7-------7-------7-------7---|
|-----5---------5-----5---------5-|-----7---------7-----7---------7-|
|-----5-------5-------5-------5---|-----7-------7-------7-------7---|
|-5-------5-------5-------5-------|-7-------7-------7-------7-------|
|---------------------------------|---------------------------------|

  G                                 C*
|-9-----7---5-----4-----2---0-----|-----------5---------------5-----|
|-8-----7---5-----3-----1---0-----|-----5-------5-------5-------5---|
|---------------------------------|-----5---------5-----5---------5-|
|-----0-------0-------0-------0---|-----5-------5-------5-------5---|
|-0-------0-------0-------0-------|-5-------5-------5-------5-------|
|---------------------------------|---------------------------------|

Refrein
Stuk G
  G                                 Em
|-----9-----9-------9-------9-----|-----9-----9-------9-------9-----|
|-----8---------8-------8-------8-|-----8---------8-------8-------8-|
|---------------------------------|---------------------------------|
|-----0-------0-------0-------0---|-----9-------9-------9-------9---|
|-0-------0-------0-------0-------|-9-------9-------9-------9-------|
|---------------------------------|---------------------------------|

  G                                 Em
|-----9-----9-------9-------9-----|-----9-----9-------9-------9-----|
|-----8---------8-------8-------8-|-----8---------8-------8-------8-|
|---------------------------------|---------------------------------|
|-----0-------0-------0-------0---|-----9-------9-------9-------9---|
|-0-------0-------0-------0-------|-9-------9-------9-------9-------|
|---------------------------------|---------------------------------|

Stuk H
  G                                 Em
|-----9-----9-------9-------9-----|-----9-----9-------9-------9-----|
|-----8---------8-------8-------8-|-----8---------8-------8-------8-|
|---------------------------------|---------------------------------|
|-----0-------0-------0-------0---|-----9-------9-------9-------9---|
|-0-------0-------0-------0-------|-9-------9-------9-------9-------|
|---------------------------------|---------------------------------|

  G               Em                D*
|-----9-----9-------9-------9-----|-----------7-----|
|-----8---------8-------8-------8-|-----7-------7---|
|---------------------------------|-----7---------7-|
|-----0-------0-------9-------9---|-----7-------7---|
|-0-------0-------9-------9-------|-7-------7-------|
|---------------------------------|-----------------|


Nu worden stuk A tot en met stuk H met kleine aanpassingen herhaald.
Daarna wordt stuk A nogmaals gespeeld.

Slot
  G               D/g               C/g             D/g
|-9---------9-----7---------7-----|-----------5-------7-------7-----|
|-------------------7-----------7\\\5---------------------7---------|
|-------7---------------7---------|-------5-------5/7---------------|
|-----0-------0-------0-------0---|-----0-------0-------0-------0---|
|-0-------0-------0-------0-------|-0-------0-------0-------0-------|
|---------------------------------|---------------------------------|

  G               D/g               C/g     D/g     G
|-9---------9-----7---------7-----|-----5-------7-------9-----------|
|-------------------7-----------7-|----5-------7-------8------------|
|-------7---------------7---------|---5-------7-------7-------------|
|-----0-------0-------0-------0---|--0-------0-------0--------------|
|-0-------0-------0-------0-------|-0-------0-------0---------------|
|---------------------------------|---------------------------------|



Couplet 1:

Mijn moeder zegt: “Hier is je koffie. Goh, da‘k de bel nog heb gehoord
‘k Was in de tuin net bezig met de buitenboel.”
Mijn vader is al drie jaar dood, maar het lijkt zo vaak alsof-ie
er nog bij zit aan de tafel op z’n stoel


En dan praat ik met mijn moeder over het weer en de tv
Al die zelfde nieuwe zenders, ach, wat moet een mens daar eigenlijk mee
En dat ze Ajax nog gezien heeft, die wedstrijd van verleden week
Niet dat ze zoveel geeft om voetbal, maar omdat pa dat altijd keek
We praten over winkels, dat ze ’s avonds open zijn
Dat ze geen airmiles spaart, want daar heb je niks aan in de trein


Refrein:

Het gaat over van alles als ik met mijn moeder praat
Maar ze zal niet zo gauw zeggen waar het eigenlijk om gaat
Dat zegt ze wel tegen mijn vader, in haar eentje bij dat graf:
“Sinds jij er niet meer bij bent, is de lol er wel vanaf.”


Couplet 2:

Mijn moeder vraagt: “Wil je een pilsje? Harrie, je weet wel waar het staat.
Heb jij die onweersbui ook nog gehoord vannacht?”
‘k Kijk naar de foto van mijn vader die op de schoorsteen staat.
De mooiste waar-ie al drie jaar lang dag en nacht op lacht.

Met een glimlach zegt mijn moeder: “Het was donderdag weer feest.”
Daarmee bedoelt ze dat haar kleinkind Marian is langs geweest.
En dat het eigenlijk wel raar is dat die nu al veertien jaar is
En al voor feestjes wordt gevraagd. En van die zwarte rokjes draagt.
Ach, het gaat over van alles. De huurverhoging, of een bril,
En dat ze voor geen goud zo’n bejaardenhuis in wil


Refrein:

Het gaat over van alles als ik met mijn moeder praat,
Maar ze zal niet zo gauw zeggen waar het eigenlijk om gaat.
Dat zegt ze wel tegen mijn vader, in haar eentje bij dat graf:
“Sinds jij er niet meer bij bent, is de lol er wel vanaf.”


Slot:

Maar tegen mij zegt ze dat zelden; mijn moeder is een sterke vrouw
‘k Zou toch wat vaker moeten zeggen dat ik heel veel van haar hou.



Aantekeningen:
1 = wijsvinger
2 = middelvinger
3 = ringvinger
4 = pink

()= vinger neerzetten
[]= vinger plat leggen op de aangegeven snaren

G
||-----|-----|-----|-----|-----|-----|-----|-----|-(3)-|
||-----|-----|-----|-----|-----|-----|-----|-(2)-|-----|
||-----|-----|-----|-----|-----|-----|-(1)-|-----|-----|
|o-----|-----|-----|-----|-----|-----|-----|-----|-----|
|o-----|-----|-----|-----|-----|-----|-----|-----|-----|
||-----|-----|-----|-----|-----|-----|-----|-----|-----|
                *           *           *           *

G(1)
||-----|-----|-----|-----|-----|-----|-----|-----|-----|
||-----|-----|-(1)-|-----|-----|-----|-----|-----|-----|
||-----|-----|-----|-(3)-|-----|-----|-----|-----|-----|
|o-----|-----|-----|-----|-----|-----|-----|-----|-----|
|o-----|-----|-----|-----|-----|-----|-----|-----|-----|
||-----|-----|-----|-----|-----|-----|-----|-----|-----|
                *           *           *           *


G7
||-----|-----|-----|-----|-----|-----|-----|-----|-(4)-|
||-----|-----|-----|-----|-----|-(1)-|-----|-----|-----|
||-----|-----|-----|-----|-----|-----|-----|-----|-----|
|o-----|-----|-----|-----|-----|-----|-----|-----|-----|
|o-----|-----|-----|-----|-----|-----|-----|-----|-----|
||-----|-----|-----|-----|-----|-----|-----|-----|-----|
                *           *           *           *


D/g
||-----|-----|-----|-----|-----|-----|-[1]-|-----|-----|
||-----|-----|-----|-----|-----|-----|-[1]-|-----|-----|
||-----|-----|-----|-----|-----|-----|-[1]-|-----|-----|
|o-----|-----|-----|-----|-----|-----|-----|-----|-----|
|o-----|-----|-----|-----|-----|-----|-----|-----|-----|
||-----|-----|-----|-----|-----|-----|-----|-----|-----|
                *           *           *           *

D
||-----|-----|-----|-----|-----|-----|-[1]-|-----|-----|
||-----|-----|-----|-----|-----|-----|-[1]-|-----|-----|
||-----|-----|-----|-----|-----|-----|-[1]-|-----|-----|
|o-----|-----|-----|-----|-----|-----|-----|-----|-----|
||-----|-----|-----|-----|-----|-----|-----|-----|-----|
|o-----|-----|-----|-----|-----|-----|-----|-----|-----|
                *           *           *           *

D*
||-----|-----|-----|-----|-----|-----|-[1]-|-----|-----|
||-----|-----|-----|-----|-----|-----|-[1]-|-----|-----|
||-----|-----|-----|-----|-----|-----|-[1]-|-----|-----|
||-----|-----|-----|-----|-----|-----|-[1]-|-----|-----|
||-----|-----|-----|-----|-----|-----|-[1]-|-----|-----|
||-----|-----|-----|-----|-----|-----|-----|-----|-----|
                *           *           *           *

C/g
||-----|-----|-----|-----|-[1]-|-----|-----|-----|-----|
||-----|-----|-----|-----|-[1]-|-----|-----|-----|-----|
||-----|-----|-----|-----|-[1]-|-----|-----|-----|-----|
|o-----|-----|-----|-----|-----|-----|-----|-----|-----|
|o-----|-----|-----|-----|-----|-----|-----|-----|-----|
||-----|-----|-----|-----|-----|-----|-----|-----|-----|
                *           *           *           *

C*
||-----|-----|-----|-----|-[1]-|-----|-----|-----|-----|
||-----|-----|-----|-----|-[1]-|-----|-----|-----|-----|
||-----|-----|-----|-----|-[1]-|-----|-----|-----|-----|
||-----|-----|-----|-----|-[1]-|-----|-----|-----|-----|
||-----|-----|-----|-----|-[1]-|-----|-----|-----|-----|
||-----|-----|-----|-----|-----|-----|-----|-----|-----|
                *           *           *           *

Em
||-----|-----|-----|-----|-----|-----|-----|-----|-(3)-|
||-----|-----|-----|-----|-----|-----|-----|-(1)-|-----|
||-----|-----|-----|-----|-----|-----|-----|-----|-----|
||-----|-----|-----|-----|-----|-----|-----|-----|-(4)-|
||-----|-----|-----|-----|-----|-----|-----|-----|-(2)-|
||-----|-----|-----|-----|-----|-----|-----|-----|-----|
                *           *           *           *





Comments


Popular Harrie Jekkers tabs & chords
Mijn Ik Van 20 Jaar Chords
Stel Chords
Zo Mooi Chords
Alleen En In Zijn Eentje Tabs
De Straatnaambordjesblues Tabs
Soldaat Op De Foto Tabs
Zonsondergangen Tabs
Mijn Ik Van 20 Jaar Ukulele
Partnerjacht Ukulele
Zo Mooi Ukulele


Song lyrics



↑ Back to top | Tablatures and chords are parodies/interpretations of the original songs. You may use it for private study, scholarship, research or language learning purposes only
© 2014 AZChords.com Contact us | Privacy policy | DMCA | Add/correct tabs | Request tabs | Top 50 tabs