>
 >
Forever

Forever Guitar Tabs

Harper Roy - Forever chords, tabs, tablatures, lyrics

Guitar lessons | Add/correct | Request | Top 50 tabs Artists:  A B C D E F G H I J K L M N O P Q R S T U V W X Y Z 0-9

Forever Guitar Tabs – Harper Roy

CD, Sheet music, Poster

Do you like Forever? Share with your friends now
TabsTabs v2
[Song: Roy Harper "Forever"]

This is something I haven't posted before I think - especially for you
finger-picking tab readers. I've never seen Roy play this, and wonder
exactly what he does becuase the way I do this, the harmonics at the end
don't work out (so I've left them out of this!). 
I did have a version which was almost impossible to play in G (and you 
needed very long fingers for!) for which the harmonics did work bt never
found a compromise. Roy well have played this on open tuning but that
makes it (a) incredibly boring to play and (b) the harmonics still don;t
work!

Gordon
                               --

-------


E|------------0---|2-----2---0-----|----------------|----------------|
B|--0---3---------|----------------|3-------3-0-----|----------------|
G|2---------------|----------------|----------------|2---------------|
D|----0-------0---|----0-------0---|----0-------0---|----0-----------|
A|----------------|----------------|----------------|----------------|
D|0-------0-------|0-------0-------|0-------0-------|0-------0---4-2-|
 We're spin -ning leaves  in the  flight    of a    dawn        little
   just
E|----------------|----------------|----------------|----------------|
B|----0-3---0-2---|3---------------|0-----0---------|0-----0---------|
G|--2-------------|----------------|--2^0-----2^0---|--2^0-----2^0---|
D|----0-------0---|----0-------0---|----0-------0---|----0-------0---|
A|----------------|----------------|----------------|----------------|
D|0-------0-------|0-------0-------|0-------0-------|0-------0-------|
 girl                              passing    an et-ternal      of
                                        through         hori zon
                                                                      
E|----------------|----------------|                                  
B|----0-3---0-2---|3---------------|                                  
G|--2-------------|----------------|                                  
D|----0-------0---|----0-------0---|                                  
A|----------------|----------------|                                  
D|0-------0-------|0-------0-------|                                  
 time

E|----------0-----|2-----------2---|3-----------2---|0---------------|
B|--0---3---------|----------------|----------------|------------3---|
G|2---------------|----------------|----------------|----------------|
D|----0-------0---|----0-------0---|----0-------0---|----0-------0---|
A|----------------|----------------|----------------|----------------|
D|0-------0-------|0-------0-------|0-------0-------|0-------0-------|
 But   we  sit    here        I'd  like         to  think       that
   as
    
E|0^2---0---------|----------------|----------------|----------------|
B|----------3-----|0-----3---0-----|--3-------------|----------------|
G|----------------|----------------|2---------------|----------------|
D|----0-------0---|----0-------0---|----0-------0---|----0-----------|
A|----------------|----------------|----------------|----------------|
D|0-------0-------|0-------0-------|0-------0-------|0-------0---4-2-|
 all   got  will   be   ours for - ev-er
  we've                                

E|----------------|----------------|----------------|----------------| 
B|----0-3---0-2---|3---------------|0-----0---------|0-3-------------| 
G|--2-------------|----------------|--2^0-----2^0---|----------------| 
D|----0-------0---|----0-------0---|----0-------0---|----0-------0---| 
A|----------------|----------------|----------------|----------------| 
D|0-------0-------|0-------0-------|0-------0-------|0-------0-------| 
                                   don't think  for-ev-er?              
                                       you  we're                      

E|----------------|----------------|----------------|----------------| 
B|----0-3---0-2---|3---------------|0-----0---------|0-3-------------| 
G|--2-------------|----------------|--2^0-----2^0---|----------------| 
D|----0-------0---|----0-------0---|----0-------0---|----0-------0---| 
A|----------------|----------------|----------------|----------------| 
D|0-------0-------|0-------0-------|0-------0-------|0-------0-------| 
                                   don't think  for-ev-er?              
                                       you  we're                      
E|----------------|----------------|
B|----0-3---0-2---|3---------------|
G|--2-------------|----------------|
D|----0-------0---|----0-------0---|
A|----------------|----------------|
D|0-------0-------|0-------0-------|

coda

E|5---------5-----|4---------4-----|3---------3-----|2---------3-----|
B|--6-------------|--5-------------|--4-------------|--3-------------|
G|------5---------|------4---------|------3---------|------2---------|
D|----0-------0---|----0-------0---|----0-------0---|----0-------0---|
A|----------------|----------------|----------------|----------------|
D|0-------0-------|0-------0-------|0-------0-------|0-------0-------|
  (F/D)            (E/D)            (Eb/D)           D

E|5---------5-----|4---------4-----|3---------3-----|2---------3-----|
B|--6-------------|--5-------------|--4-------------|--3-------------|
G|------5---------|------4---------|------3---------|------2---------|
D|----0-------0---|----0-------0---|----0-------0---|----0-------0---|
A|----------------|----------------|----------------|----------------|
D|0-------0-------|0-------0-------|0-------0-------|0-------0-------|

(play each of the next bars twice:)
E|3---------3-----|2---------2-----|----------------|------2---------|
B|--4-------------|--3-------------|2-----2---------|--3-----3-----3-|
G|------3---------|------2---------|--2-------2-----|2---2-----2-----| D!
D|----0-------0---|----0-------0---|----2-------2---|----0-------0---|
A|----------------|----------------|0---------------|----------------|
D|0-------0-------|0-------0-------|--------0-------|0-------0-------|
  Don't ever let..   little girl..  ..oh no....
    
(fit in above "Don't ever let me go little girl.....oh no...." )

last bar may be wrong fingerings - basically this is just D to finish!





Comments


Popular Harper Roy tabs & chords
Another Day Chords
Highway Blues Chords
I Hate The Whiteman Chords
Short And Sweet Chords
The Black Cloud Of Islam Chords
When An Old Cricketer Chords
Forever 1 Tabs
Same Old Rock Tabs
Short And Sweet Tabs
Tom Tiddlers Ground Tabs


Song lyrics



↑ Back to top | Tablatures and chords are parodies/interpretations of the original songs. You may use it for private study, scholarship, research or language learning purposes only
© 2014 AZChords.com Contact us | Privacy policy | DMCA | Add/correct tabs | Request tabs | Top 50 tabs