» » »

Harper Ben, Two Hands Of A Prayer Tabs (ver.1)

Artists:  A B C D E F G H I J K L M N O P Q R S T U V W X Y Z # 

Two Hands Of A Prayer Tabs (ver.1)

Harper Ben Tabs
4/5 (4 votes)
Two Hands Of A Prayer lessons Tabs too difficult? Try these video lessons and learn fast
                s = slide
h = hold down
p = pull off


     Em                            D

e -|------------------------------------2--2--3--2----
B -|--------0--0--0--0--1--1------------3--3--3--3----
G -|--------0--0--0--0--0--0-------2----2--2--2--2----    Play this 3 times
D -|--------2--2--2--2--2--2-------0------------------
A -|--2-----------------------------------------------
E -|----0---------------------------------------------

               Am                       Em

e -|---------------------------------------------------
B -|----------------1--1--3--1--------------0--0--1--0-
G -|------0h2---2---2--2--2--2--------------0--0--0--0-
D -|---0h2------2---2--2--2--2------0h2--2--2--2--2--2-
A -|------------0----------------0h2-----2-------------
E -|-------------------------------------0-------------



e -|--------------------------------               ----------------
B -|-------------0--1--0--3--3--1--- Play that     ----------------
G -|-------------0--0--0--0--0--0--- 3 times then  -----------0--0-
D -|--2-2--2-----2--2--2--2--2--2--- lead into     -2-2--2----2--0-
A -|--2-2--2------------------------ chorus with   -2-2--2----2--2-
E -|-------0------------------------               ------0---------



      C                    G     D  (part varies slightly chorus 2 chorus)

e -|-----------------------3-----2-2-2-2-3-2-2-0-2-2-2-2-2-3-2-0-
B -|--1--1--1--1--1--1-----0-----3-3-3-3-3-3-3-3-3-3-3-3-3-3-3-3-
G -|--0--0--0--0--0--0-----0-----2-2-2-2-2-2-2-2-2-2-2-2-2-2-2-2-
D -|--2--2--2--2--2--2-----0-----0-0-0-0-0-0-0-0-0-0-0-0-0-0-0-0-
 A -|--3--3--3--3--3--3-----2-------------------------------------
E -|-----------------------3-------------------------------------

      two hands of a prayer......."

-- use your best judgement with the rhythm and the number of 
-- times you play the above chorus. 

-- and then depending on the point in the song, Ben plays one of the 
-- two following riffs. Both riffs are the same except one exits early 
-- into the bridge, I believe that riff occurs after every second chorus.

e -|--------------------------------------------------------------2-2-3-2-
B -|-0---0-0------------------------------------------------------3-3-3-3-
G -|-2s4-2-0h2p0-----0---0h2--0h2p0--0-----0---0h2-0h2p0-------2--2-2-2-2-
D -|--------------0--0h2-------------2--2--0h2------------4-2--0--0-0-0-0-
A -|------------------------------------2---------------------------------
E -|------------------------------------0---------------------------------

OR after every second chorus

e -|------------------------------------------------------
B -|-0---0-0-------------------------------0--1--0--3-3-1-
G -|-2s4-2-0h2p0-----0---0h2--0h2p0--0-----0--0--0--0-0-0-  Repeat bridge,etc.
D -|--------------0--0h2-------------2--2--2--2--2--2-2-2-
A -|------------------------------------2-----------------
E -|------------------------------------0-----------------
Submit corrections

comments powered by Disqus
↑ Back to top | Harper Ben Tabs for Two Hands Of A Prayer. Lyrics for acoustic guitar and electric guitar. Tablatures and chords are parodies/interpretations of the original songs. You may use it for private study, scholarship, research or language learning purposes only