» » »

Harper Ben, Power Of The Gospel Tabs (ver.2)

Artists:  A B C D E F G H I J K L M N O P Q R S T U V W X Y Z # 

Power Of The Gospel Tabs (ver.2)

Harper Ben Tabs
 Rating:
4/5 (4 votes)
Power Of The Gospel lessons Tabs too difficult? Try these video lessons and learn fast
                regular e tuning    E a d g b e

h-hammer on
p-pull off
s-slide

Intro:

--------------------------------------------
---0-----1--0-------------------------------
-2------0-----2--0-----------------0--------
-------2------------4--2--1--2--4-----4--2--
------3-------------------2-----------------
-----------------0-----------------0--------

--------------------------------------------
----1--0------------------------------------
---0------2---0-----------------------------
--2-------------4--2---1----2---------------
-3---------------------2----0---------------
--------------0-----------------------------

--------------------------------------------
---0----1--0--------------------------------
-2-----0------2--0-----------------0--------
------2-------------4--2--1--2--4------4--2-
-----3--------------------2-----------------
-----------------0-----------------0--------

--------------------------------------------
----1--0------------------------------------
---0------2---0-----------0-----------------
--2-------------4--2-------------1-----2h4p2 play whole thing twice
-3---------------------3--------------------
--------------0---------------2--------0----

--------------------------------------------
--------------1--1p0------------------------
--------------------------4--4p0-----2--2p0- play three times
---2--2p0--------------------------0--------
-----------3--------------------------------
-0---------------------3--------------------

--------------------------------------------
--------------------------------------------
--------0-----------------------------------
-----2---------1----4h5p4---2p1h2-----2-----
--3---------2-------------------------------
------------------------------------3---3--0

--------------------------------------------
--------------------------------------------
------4--4-------4--4--------5--5-------4--4
-1s2--------1s2---------1s2---------1s2----- play twice
--------------------------------------------
-0----------0-----------0-----------0-------

--------------------------------------------
--------------------------------------------
--------------------------------------------
-1s2--5--5--1s2--4--4--1s2--5--5--1s2--4--4-
--------------------------------------------
-0----------0----------0----------0---------

--------------------------------------------
--------------------------------------------
--------------------------------------------
-1s2--5--5--1s2--4--4--2p1h2-----2-------2--
----------------------------------------2---
-0----------0----------0-------3---3---0----


chords: em  c  ds2  bm
            
Submit corrections

comments powered by Disqus
↑ Back to top | Harper Ben Tabs for Power Of The Gospel. Lyrics for acoustic guitar and electric guitar. Tablatures and chords are parodies/interpretations of the original songs. You may use it for private study, scholarship, research or language learning purposes only