» » »

Less Tabs (ver.1)

Artists:  A B C D E F G H I J K L M N O P Q R S T U V W X Y Z # 

Less Tabs (ver.1)

Harper Ben
Rating:
0/5 (0 votes)

Hard to play? Try these video lessons and learn fast.
                Less - Ben Harper & The Innocent Criminals


INTRO:
G|---------------|
D|-5-5/7\5--5--5-|
A|-5-5/7\5--5--5-|
E|-3-3/5\3--3--3-|

G|-0-0---3---------|-0-0-------------|
D|-----3-----2-3-4-|-----2-3---2-3-4-|
   1 + 2 + 3 + 4 +   1 + 2 + 3 + 4 + 

G|-0-0---3---------|-0-0-------------|
D|-----3-----2-3-4-|-----2-3---2-3-4-|
   1 + 2 + 3 + 4 +   1 + 2 + 3 + 4 +

VERSE 1
G|-0-0---3---------|-0-0-------------|
D|-----3-----2-3-4-|-----2-3---2-3-4-|x7
   1 + 2 + 3 + 4 +   1 + 2 + 3 + 4 +

G|-0-0---3---------|-0-0-0-0-0-0-0---|
D|-----3-----2-3-4-|---------------2-|
   1 + 2 + 3 + 4 +   1 + 2 + 3 + 4 +

CHORUS 1
G|-9-9-8-7---------|-4---4-5---------|
D|---------------2-|---2-----------2-| x4
   1 + 2 + 3 + 4 +   1 + 2 + 3 + 4 +

G|-9-9-8-7---------|-4---4-5---------|
D|---------------2-|---2-------------|
   1 + 2 + 3 + 4 +   1 + 2 + 3 + 4 +

D|-2---------5-----|-----------------|
G|---------------3-|---2-3-2-3-2-3-2-|
   1 + 2 + 3 + 4 +   1 + 2 + 3 + 4 +

D|-2---------5-----|-----------------|
G|---------------3-|---2-3-2-3-2-3-4-|
   1 + 2 + 3 + 4 +   1 + 2 + 3 + 4 +

VERSE 2
G|-0-0---3---------|-0-0-------------|
D|-----3-----2-3-4-|-----2-3---2-3-4-|x7
   1 + 2 + 3 + 4 +   1 + 2 + 3 + 4 +

G|-0-0---3---------|-0-0-0-0-0-0-0---|
D|-----3-----2-3-4-|---------------2-|
   1 + 2 + 3 + 4 +   1 + 2 + 3 + 4 +

CHORUS 2
G|-9-9-8-7---------|-4---4-5---------|
D|---------------2-|---2-----------2-| x4
   1 + 2 + 3 + 4 +   1 + 2 + 3 + 4 +

G|-9-9-8-7---------|-4---4-5---------|
D|---------------2-|---2-------------|
   1 + 2 + 3 + 4 +   1 + 2 + 3 + 4 +

D|-2---------5-----|-----------------|
G|---------------3-|---2-3-2-3-2-3-2-|
   1 + 2 + 3 + 4 +   1 + 2 + 3 + 4 +

D|-2---------5-----|-----------------|
G|---------------3-|---2-3-2-3-2-3-2-|
   1 + 2 + 3 + 4 +   1 + 2 + 3 + 4 +

D|-2---------5-----|-----------------|
G|---------------3-|---2-2-2-2-2-2-2-|
   1 + 2 + 3 + 4 +   1 + 2 + 3 + 4 +

BRIDGE
D|-----------------|-4---4-5-4-2-----|
G|-2---2-4-5-4-2---|---2-------------|
   1 + 2 + 3 + 4 +   1 + 2 + 3 + 4 +

D|-----------------|-4---4-5-4-2-----|
G|-2---2-4-5-4-2---|---2-------------|x12 (with vocals)
   1 + 2 + 3 + 4 +   1 + 2 + 3 + 4 +

D|-----------------|-4---4-5-4-2-----|
G|-2---2-4-5-4-2---|---2-------------|Repeat to Fade (no vocals)
   1 + 2 + 3 + 4 +   1 + 2 + 3 + 4 +
            
Hard to play? Try these video lessons and learn fast. | Correct




comments powered by Disqus
↑ Back to top | Tablatures and chords are parodies/interpretations of the original songs. You may use it for private study, scholarship, research or language learning purposes only