» » »

Ground On Down Bass tabs (ver.1)

Artists:  A B C D E F G H I J K L M N O P Q R S T U V W X Y Z # 

Ground On Down Bass tabs (ver.1)

Harper Ben
Rating:
0/5 (0 votes)

Tabs too difficult? Try these video lessons and learn fast.
                GROUND ON DOWN
BEN HARPER
BY yt23w

VERSE
G-------------------12-|-------------------12-|-------------------12-|--------------------12--|
D------------3---/14---|------------3---/14---|------------3---/14---|-----------------/14----|
A--3--3h5--3-----------|--3--3h5--3-----------|--3--3h5--3-----------|---3--1--1--0-----------|
E----------------------|----------------------|----------------------|------------------------|

Bridge
G---------------------------------------|-----------------|
D---------------------------------------|-----------------|
A-3-3-3-3-3-3-3-3-3-3-3-3-3-3-3-3-3-3-3-|--3-----1-----0--|
E---------------------------------------|-----------------|
            
Tabs too difficult? Try these video lessons and learn fast.




comments powered by Disqus
↑ Back to top | Tablatures and chords are parodies/interpretations of the original songs. You may use it for private study, scholarship, research or language learning purposes only