» » »

Gold To Me Bass tabs (ver.1)

Artists:  A B C D E F G H I J K L M N O P Q R S T U V W X Y Z # 

Gold To Me Bass tabs (ver.1)

Harper Ben
Rating:
0/5 (0 votes)

Tabs too difficult? Try these video lessons and learn fast.
                Gold to Me
              Ben Harper-Album "FIGHT FOR YOUR MIND"
                                        Tab by Jamie Melbourne
                                                New Zealand

G-----------------------------------------------------------------------
D-----------------------------------------------------------------------
A----------------5-----------5------------------------------------------
E---3-----5/7----------7------------------------------------------------

                          Repeat 4x

G-----------------------------------------------------------------------
D----------------7-----------7------------------------------------------
A---5-----7/9----------9------------------------------------------------
E-----------------------------------------------------------------------

                          Repeat 2x

G-----------------------------------------------------------------------
D----------------5-----------5------------------------------------------
A---3----5/7-----------7------------------------------------------------
E-----------------------------------------------------------------------

                          Repeat 2x


Thats the whole song, just repeat it from the top.



# NZ #
            
Tabs too difficult? Try these video lessons and learn fast.


comments powered by Disqus
↑ Back to top | Tablatures and chords are parodies/interpretations of the original songs. You may use it for private study, scholarship, research or language learning purposes only