» » »

Harper Ben, Diamonds On The Inside Tabs (ver.2)

Artists:  A B C D E F G H I J K L M N O P Q R S T U V W X Y Z # 

Diamonds On The Inside Tabs (ver.2)

Harper Ben Tabs
 Rating:
4/5 (4 votes)
Diamonds On The Inside lessons Tabs too difficult? Try these video lessons and learn fast
                (Solo)
Diamonds on The Inside - SOLO
By GaZ


E|-----------------------|
B|9--- 9-----------------|
G|8h10-8---8-------------|
D|--------8h10-p8--6-----|
A|------------------6----|
E|-----------------------|

E|--------------------|--------------------|
B|--------------------|--------------------|
G|--------------------|--------------------|
D|8-------------8-----|6-------------6-----|
A|6----6-(8)/10----10-|4----4-(6)/8----8---|
E|--------------------|--------------------|

E|--------------------|--------------------|
B|----------------10--|--------------------|
G|-----10---8/10----10|8p5-----------------|
D|8/10---10-----------|----8p6-------------|
A|--------------------|--------8p6---------|
E|--------------------|------------8p6-----|

E|--------------------|--------------------|
B|--------------------|--------------------|
G|--------------------|--------------------|
D|6-------------6-----|8-------------8-----|
A|6----4-(6)/8----8---|6----6-(8)/10----10-|
E|--------------------|--------------------|

E|--------------------|------------------------|
B|9p8-----------------|9-----------------------|
G|----10-8--10v-------|8h10-8-------------8----|
D|--------------------|-------10\8-6-8/10---10-|
A|--------------------|------------------------|
E|--------------------|------------------------|

E|--------------------|--------11---------------------|
B|----------9-11--9---|(11)b13----(13)r11-9--11p9---9-|
G|8h10--8-10----------|---------------------------10--|
D|--------------------|-------------------------------|
A|--------------------|-------------------------------|
E|--------------------|-------------------------------|


E|--------------------|------------------------|
B|(11)b13°-9----------|------------------------|
G|-----------10-10----|8h10-8------------------|
D|--------------------|------  10\8-6-8p6------|
A|--------------------|--------------------8\--|
E|--------------------|------------------------|

E|--------------------|-----------------------|
B|7p6-----------------|------------9----------|
G|-----8p6-------6-6--|6-8p6--8/10------------|
D|----------6h8-------|-----------------------|
A|--------------------|-----------------------|
E|--------------------|-----------------------|


E|--------------------|------------------------|
B|9p8-----------------|------------------------|
G|-----10p8-------8-8-|8-10p8-(10)b11\---------|
D|----------8h10------|------------------------|
A|--------------------|------------------------|
E|--------------------|------------------------|

Thats pretty much it guys, a few notes may be off but other than thats its all good.
GP
            
Submit corrections

comments powered by Disqus
↑ Back to top | Harper Ben Tabs for Diamonds On The Inside. Lyrics for acoustic guitar and electric guitar. Tablatures and chords are parodies/interpretations of the original songs. You may use it for private study, scholarship, research or language learning purposes only