» » »

Born To Shine Bass tabs (ver.1)

Artists:  A B C D E F G H I J K L M N O P Q R S T U V W X Y Z # 

Born To Shine Bass tabs (ver.1)

Harper Ben
Rating:
0/5 (0 votes)

Hard to play? Try these video lessons and learn fast.
                Verse
      ----staccato--- 
|----|---------|---------|--------------|------7----7-----|
|----|---------|---------|------------5-|--4-7----7-------|
|----|---------|---------|------2-3-5---|-5-----------5-5-|
|-0--|-0-0-0-0-|-0-0-0-02|3---3---------|-----------------|

Chorus

|---------------------------------------------|
|------------7-|-5---------|-----4----7----47-|
|------4-5-7---|-----------|-5-5--5-5--5-5----|
|-5--5---------|---3-3-r-3-|------------------|
                            this part is not 
                            very precise but it
                            sounds quite good

Bridge
|-----------|-----------|--------------|
|-----------|-----------|--------------|
|-0--00--32-|-0--00-----|-0--32-0----0-|
| ----------|--------32-|---------32---|

Suggestions or corrections welcome.
            
Hard to play? Try these video lessons and learn fast. | Correct




comments powered by Disqus
↑ Back to top | Tablatures and chords are parodies/interpretations of the original songs. You may use it for private study, scholarship, research or language learning purposes only