» » »

Alone Tabs (ver.1)

Artists:  A B C D E F G H I J K L M N O P Q R S T U V W X Y Z # 

Alone Tabs (ver.1)

Harper Ben
Rating:
0/5 (0 votes)

Hard to play? Try these video lessons and learn fast.
                This song is really easy to play....and fun at that.... 

--------------------------|-----------------------|--------------------------- 
--------------------------|-----------------------|--------------------------- 
--------------------------|-----------------------|--------------------------- 
--------------------------|-----------------------|--------------------------- 
-----12-12-12----10-10-10-|----9-9-9----10-10-10--|--------------------------- 
--0------------0----------|--0--------0-----------|--------------------------- 
       Verse                                                                   

--------------------------|-----------------------|--------------------------- 
--------------------------|-----------------------|--------------------------- 
--------------------------|-----------------------|--------------------------- 
--------------------------|-----------------------|--------------------------- 
----10-10-10-10----10-10--|----9-9-9-9----9-9-----|--------------------------- 
--8--------------8--------|--7----------7---------|--------------------------- 
      Pre-chorus                                                               

--------------------------|-----------------------|--------------------------- 
--------------------------|-----------------------|--------------------------- 
--------------------------|-----------------------|-----4-4-4----------------- 
--------------------------|-----------------------|--------------------------- 
----7-7-7----10-10-10-----|----7-7-7--------------|--------------------------- 
--0--------8--------------|--5--------------------|---3----------------------- 
      Chorus
            
Hard to play? Try these video lessons and learn fast. | Correct




comments powered by Disqus
↑ Back to top | Tablatures and chords are parodies/interpretations of the original songs. You may use it for private study, scholarship, research or language learning purposes only