>
 >
Pour Un Instant

Pour Un Instant Guitar Tabs

Harmonium - Pour Un Instant chords, tabs, tablatures, lyrics

Guitar lessons | Add/correct | Request | Top 50 tabs Artists:  A B C D E F G H I J K L M N O P Q R S T U V W X Y Z 0-9

Pour Un Instant Guitar Tabs – Harmonium

CD, Sheet music, Poster

Do you like Pour Un Instant? Share with your friends now
ChordsChords v2Chords v3TabsUkulele
Harmonium - Pour Un Instant
Partition: Patrick Chamberland


capo 3ieme frettes Pour les deux Guitares


Srege Fiori:

E||------------------|------------------|------------------|
B||------------------|------------------|------------------|
G||------------------|------------------|------------------|
D||------------------|------------------|------------------|
A||------------------|------------------|------------------|
E||------------------|------------------|------------------|


                                                         
------------------|------------------|------------------|
------------------|------------------|------------------|
------------------|------------------|------------------|
------------------|------------------|------------------|
------------------|------------------|------------------|
------------------|------------------|------------------|


                                                         
------------------|------------------|------------------|
------------------|------------------|------------------|
------------------|------------------|------------------|
------------------|------------------|------------------|
------------------|------------------|------------------|
------------------|------------------|------------------|


                                                               
------------------|-------2-------2----0--|--0----------------|
------------------|-------3-------3----2--|--2----------------|
------------------|-------2-------2----2--|--2----------------|
------------------|--0---------0-------0--|--0----------------|
------------------|-----------------------|-------------------|
------------------|-----------------------|-------------------|


                                           
-------3-------3----2--|------------------|
-------3-------3----3--|------------------|
-------4-------4----2--|------------------|
--0---------0-------0--|------------------|
-----------------------|------------------|
-----------------------|------------------|


                                            
-------2-------2----0--|--0----------------|
-------3-------3----2--|--2----------------|
-------2-------2----2--|--2----------------|
--0---------0-------0--|--0----------------|
-----------------------|-------------------|
-----------------------|-------------------|


                                           
-------3-------3----2--|------------------|
-------3-------3----3--|------------------|
-------4-------4----2--|------------------|
--0---------0-------0--|------------------|
-----------------------|------------------|
-----------------------|------------------|


                                                              
------------------10---------|--------------------10---------|
-------10----------------10--|---------10---------10-----10--|
--------------11-------------|-----11---------11-------------|
--0--------0----------0------|--0----------0----------0------|
-----------------------------|-------------------------------|
-----------------------------|-------------------------------|


                                                           
-----------------10--------|---------10--------9----------|
--------8---------------8--|-----10------------10-----10--|
-----9--------9------------|-----9----------9-------------|
---------------------------|------------------------------|
---------------------------|--0----------0---------0------|
--0--------0---------0-----|------------------------------|


                                                              
------------------10---------|--------------------10---------|
-------10----------------10--|---------10---------10-----10--|
--------------11-------------|-----11---------11-------------|
--0--------0----------0------|--0----------0----------0------|
-----------------------------|-------------------------------|
-----------------------------|-------------------------------|


                                                           
-----------------10--------|---------10--------9----------|
--------8---------------8--|-----10------------10-----10--|
-----9--------9------------|-----9----------9-------------|
---------------------------|------------------------------|
---------------------------|--0----------0---------0------|
--0--------0---------0-----|------------------------------|


                                                
-------2-------2----2--|-------0-------0----0--|
-------3-------3----3--|-------3-------3----3--|
-------2-------2----2--|-------0-------0----0--|
--0---------0----------|--2---------2----------|
-----------------------|-----------------------|
-----------------------|-----------------------|


                                                
-------2-------2----2--|-------3-------3----3--|
-------2-------2----2--|-------3-------3----3--|
-------2-------2----2--|-------0-------0----0--|
--4---------4----------|--0---------0----------|
-----------------------|-----------------------|
-----------------------|-----------------------|


                                                
-------2-------2----2--|-------0-------0----0--|
-------3-------3----3--|-------3-------3----3--|
-------2-------2----2--|-------0-------0----0--|
--0---------0----------|--2---------2----------|
-----------------------|-----------------------|
-----------------------|-----------------------|


                                                
-------2-------2----2--|-------3-------3----3--|
-------2-------2----2--|-------3-------3----3--|
-------2-------2----2--|-------0-------0----0--|
--4---------4----------|--0---------0----------|
-----------------------|-----------------------|
-----------------------|-----------------------|


                                            
---------------------|---------------------|
--5------------------|--5------------------|
---------6-----------|---------6-----------|
----------------7----|----------------7----|
---------------------|---------------------|
---------------------|---------------------|


                                            
---------------------|---------------------|
--5------------------|--5------------------|
---------6-----------|---------6-----------|
----------------7----|----------------7----|
---------------------|---------------------|
---------------------|---------------------|


                                            
---------------------|---------------------|
--5------------------|--5------------------|
---------6-----------|---------6-----------|
----------------7----|----------------7----|
---------------------|---------------------|
---------------------|---------------------|


                                            
---------------------|---------------------|
--5------------------|--5------------------|
---------6-----------|---------6-----------|
----------------7----|----------------7----|
---------------------|---------------------|
---------------------|---------------------|


                                                              
------------------10---------|--------------------10---------|
-------10----------------10--|---------10---------10-----10--|
--------------11-------------|-----11---------11-------------|
--0--------0----------0------|--0----------0----------0------|
-----------------------------|-------------------------------|
-----------------------------|-------------------------------|


                                                           
-----------------10--------|---------10--------9----------|
--------8---------------8--|-----10------------10-----10--|
-----9--------9------------|-----9----------9-------------|
---------------------------|------------------------------|
---------------------------|--0----------0---------0------|
--0--------0---------0-----|------------------------------|


                                                              
------------------10---------|--------------------10---------|
-------10----------------10--|---------10---------10-----10--|
--------------11-------------|-----11---------11-------------|
--0--------0----------0------|--0----------0----------0------|
-----------------------------|-------------------------------|
-----------------------------|-------------------------------|


                                                           
-----------------10--------|---------10--------9----------|
--------8---------------8--|-----10------------10-----10--|
-----9--------9------------|-----9----------9-------------|
---------------------------|------------------------------|
---------------------------|--0----------0---------0------|
--0--------0---------0-----|------------------------------|


                                                
-------2-------2----2--|-------0-------0----0--|
-------3-------3----3--|-------3-------3----3--|
-------2-------2----2--|-------0-------0----0--|
--0---------0----------|--2---------2----------|
-----------------------|-----------------------|
-----------------------|-----------------------|


                                                
-------2-------2----2--|-------3-------3----3--|
-------2-------2----2--|-------3-------3----3--|
-------2-------2----2--|-------0-------0----0--|
--4---------4----------|--0---------0----------|
-----------------------|-----------------------|
-----------------------|-----------------------|


                                                
-------2-------2----2--|-------0-------0----0--|
-------3-------3----3--|-------3-------3----3--|
-------2-------2----2--|-------0-------0----0--|
--0---------0----------|--2---------2----------|
-----------------------|-----------------------|
-----------------------|-----------------------|


                                                
-------2-------2----2--|-------3-------3----3--|
-------2-------2----2--|-------3-------3----3--|
-------2-------2----2--|-------0-------0----0--|
--4---------4----------|--0---------0----------|
-----------------------|-----------------------|
-----------------------|-----------------------|


                                            
---------------------|---------------------|
--5------------------|--5------------------|
---------6-----------|---------6-----------|
----------------7----|----------------7----|
---------------------|---------------------|
---------------------|---------------------|


                                            
---------------------|---------------------|
--5------------------|--5------------------|
---------6-----------|---------6-----------|
----------------7----|----------------7----|
---------------------|---------------------|
---------------------|---------------------|


                                            
---------------------|---------------------|
--5------------------|--5------------------|
---------6-----------|---------6-----------|
----------------7----|----------------7----|
---------------------|---------------------|
---------------------|---------------------|


                                            
---------------------|---------------------|
--5------------------|--5------------------|
---------6-----------|---------6-----------|
----------------7----|----------------7----|
---------------------|---------------------|
---------------------|---------------------|


                                                  
------------------------|------------------------|
------------------------|------------------------|
-------2-------------2--|--2----2-------------2--|
--0---------0--2--4-----|------------0--2--4-----|
------------------------|------------------------|
------------------------|------------------------|


                                                 
-----------------------|------------------------|
-----------------------|------------------------|
--2--0---------0-------|------------------------|
----------4---------2--|--2----2----------0--0--|
-----------------------|------------0--2--------|
-----------------------|------------------------|


                                                  
------------------------|------------------------|
------------------------|------------------------|
-------2-------------2--|--2----2-------------2--|
--0---------0--2--4-----|------------0--2--4-----|
------------------------|------------------------|
------------------------|------------------------|


                                                 
-----------------------|------------------------|
-----------------------|------------------------|
--2--0---------0-------|------------------------|
----------4---------2--|--2----2----------0--0--|
-----------------------|------------0--2--------|
-----------------------|------------------------|


                                                
------2h3h2------------|------2h3h2--5------5--|
-------------3------3--|-----------------------|
-----------------------|-----------------------|
-----------------------|-----------------------|
-----------------------|-----------------------|
-----------------------|-----------------------|


                                                     
------2h3h2------------|----5-7-5--3-5-3------------|
-------------3------3--|----7-8-7--5-7-5--7-8-7--5--|
-----------------------|------------------7-9-7--4--|
-----------------------|----------------------------|
-----------------------|----------------------------|
-----------------------|----------------------------|


                                                 
-----------2--3--2-----|------------2--3--2--5--|
--3-----------------3--|--3----3----------------|
--2--------------------|------------------------|
-----------------------|------------------------|
-----------------------|------------------------|
-----------------------|------------------------|


                                                      
--5----5----2--3--2-----|----5-7-5--3-5-3------------|
---------------------3--|----7-8-7--5-7-5--7-8-7--5--|
------------------------|------------------7-9-7--4--|
------------------------|----------------------------|
------------------------|----------------------------|
------------------------|----------------------------|


                                            
---------------------|---------------------|
--5------------------|--5------------------|
---------6-----------|---------6-----------|
----------------7----|----------------7----|
---------------------|---------------------|
---------------------|---------------------|


                                            
---------------------|---------------------|
--5------------------|--5------------------|
---------6-----------|---------6-----------|
----------------7----|----------------7----|
---------------------|---------------------|
---------------------|---------------------|


                                            
---------------------|---------------------|
--5------------------|--5------------------|
---------6-----------|---------6-----------|
----------------7----|----------------7----|
---------------------|---------------------|
---------------------|---------------------|


                                            
---------------------|---------------------|
--5------------------|--5------------------|
---------6-----------|---------6-----------|
----------------7----|----------------7----|
---------------------|---------------------|
---------------------|---------------------|


                                                              
------------------10---------|--------------------10---------|
-------10----------------10--|---------10---------10-----10--|
--------------11-------------|-----11---------11-------------|
--0--------0----------0------|--0----------0----------0------|
-----------------------------|-------------------------------|
-----------------------------|-------------------------------|


                                                           
-----------------10--------|---------10--------9----------|
--------8---------------8--|-----10------------10-----10--|
-----9--------9------------|-----9----------9-------------|
---------------------------|------------------------------|
---------------------------|--0----------0---------0------|
--0--------0---------0-----|------------------------------|


                                                              
------------------10---------|--------------------10---------|
-------10----------------10--|---------10---------10-----10--|
--------------11-------------|-----11---------11-------------|
--0--------0----------0------|--0----------0----------0------|
-----------------------------|-------------------------------|
-----------------------------|-------------------------------|


                                                           
-----------------10--------|---------10--------9----------|
--------8---------------8--|-----10------------10-----10--|
-----9--------9------------|-----9----------9-------------|
---------------------------|------------------------------|
---------------------------|--0----------0---------0------|
--0--------0---------0-----|------------------------------|


                                                
------5--2--3--5----5--|------5--2--3--5----5--|
------7--3--5--7----7--|------7--3--5--7----7--|
-----------------------|-----------------------|
-----------------------|-----------------------|
-----------------------|-----------------------|
-----------------------|-----------------------|


                                              
--7----5----3----2----|--0----0----2----3----|
--8----7----5----5----|--2----2----3----5----|
----------------------|----------------------|
----------------------|----------------------|
----------------------|----------------------|
----------------------|----------------------|


                                               
--5----5-----7--5--------|--5----------------||
--7----7--7--7--7--8--7--|--7----------------||
----------7--------7-----|--7----------------||
-------------------------|--0----------------||
-------------------------|-------------------||
-------------------------|-------------------||


Michel Normandeau:

E||------------------|-------2--------2-----2--|
B||------------------|-------3--------3-----3--|
G||------------------|--2----------2-----------|
D||------------------|--0-------0--------0-----|
A||------------------|-------------------------|
E||------------------|-------------------------|


                                                      
--------2-----------------|--------0-----------------|
--------3--------3-----3--|--------3--------3-----3--|
-----2--------2-----------|--------0--------0-----0--|
--0--------0--------0-----|-----2--------2-----2-----|
--------------------------|--------------------------|
--------------------------|--0--------0--------------|


                                                     
--------0-----------------|-------2--------2-----2--|
--------3--------2-----0--|-------3--------3-----3--|
-----0--------0--0-----0--|--2----------2-----------|
--2--------2--------2-----|--0-------0--------0-----|
-----------0--------0-----|-------------------------|
--------------------------|-------------------------|


                                                      
--------2-----------------|--------0-----------------|
--------3--------3-----3--|--------3--------3-----3--|
-----2--------2-----------|--------0--------0-----0--|
--0--------0--------0-----|-----2--------2-----2-----|
--------------------------|--------------------------|
--------------------------|--0--------0--------------|


                                               
--------0-----------------|--2----------------|
--------3--------2-----0--|--3----------------|
-----0--------0--0-----0--|--2----------------|
--2--------2--------2-----|--0----------------|
-----------0--------0-----|-------------------|
--------------------------|-------------------|


                                                      
--------2--------2-----0--|--------0--------0-----0--|
--------3--------3-----2--|--------2--------2-----2--|
-----2--------2--------2--|-----2--------2--------2--|
--0--------0--------0-----|--0--------0--------0-----|
--------------------------|--------------------------|
--------------------------|--------------------------|


                                                      
--------3--------3-----3--|--------2--------2-----2--|
--------3--------3-----3--|--------3--------3-----3--|
-----4--------4--------4--|-----2--------2--------2--|
--0--------0--------0-----|--0--------0--------0-----|
--------------------------|--------------------------|
--------------------------|--------------------------|


                                                      
--------2--------2-----0--|--------0--------0-----0--|
--------3--------3-----2--|--------2--------2-----2--|
-----2--------2--------2--|-----2--------2--------2--|
--0--------0--------0-----|--0--------0--------0-----|
--------------------------|--------------------------|
--------------------------|--------------------------|


                                                     
--------3--------3-----3--|--------3h-2----------2--|
--------3--------3-----3--|--------3-------------3--|
-----4--------4--------4--|-----2-------------2-----|
--0--------0--------0-----|--0-----------0----0-----|
--------------------------|-------------------------|
--------------------------|-------------------------|


                                                     
-------2--------2-----2--|--------2-----------------|
-------3--------3-----3--|--------3--------3-----3--|
--2----------2-----------|-----2--------2-----------|
--0-------0--------0-----|--0--------0--------0-----|
-------------------------|--------------------------|
-------------------------|--------------------------|


                                                      
--------0-----------------|--------0-----------------|
--------3--------3-----3--|--------3--------2-----0--|
--------0--------0-----0--|-----0--------0--0-----0--|
-----2--------2-----2-----|--2--------2--------2-----|
--------------------------|-----------0--------0-----|
--0--------0--------------|--------------------------|


                                                     
-------2--------2-----2--|--------2-----------------|
-------3--------3-----3--|--------3--------3-----3--|
--2----------2-----------|-----2--------2-----------|
--0-------0--------0-----|--0--------0--------0-----|
-------------------------|--------------------------|
-------------------------|--------------------------|


                                                      
--------0-----------------|--------0-----------------|
--------3--------3-----3--|--------3--------2-----0--|
--------0--------0-----0--|-----0--------0--0-----0--|
-----2--------2-----2-----|--2--------2--------2-----|
--------------------------|-----------0--------0-----|
--0--------0--------------|--------------------------|


                                                     
-------2--------2-----2--|--------0-----------------|
-------3--------3-----3--|--------3--------3-----3--|
--2----------2-----------|--------0--------0-----0--|
--0-------0--------0-----|-----2--------2-----2-----|
-------------------------|--------------------------|
-------------------------|--0--------0--------------|


                                                      
--------2--------2-----2--|--------3--------3-----3--|
--------2--------2-----2--|--------3--------3-----3--|
-----2--2-----2--2-----2--|-----0--0-----0--0-----0--|
-----4--------4--------4--|-----0--------0-----------|
--------------------4-----|--------------------------|
--2--------2--------2-----|--3--------3--------3-----|


                                                     
-------2--------2-----2--|--------0-----------------|
-------3--------3-----3--|--------3--------3-----3--|
--2----------2-----------|--------0--------0-----0--|
--0-------0--------0-----|-----2--------2-----2-----|
-------------------------|--------------------------|
-------------------------|--0--------0--------------|


                                                      
--------2--------2-----2--|--------3--------3-----3--|
--------2--------2-----2--|--------3--------3-----3--|
-----2--2-----2--2-----2--|-----0--0-----0--0-----0--|
-----4--------4--------4--|-----0--------0-----------|
--------------------4-----|--------------------------|
--2--------2--------2-----|--3--------3--------3-----|


                                                      
--------0--------0-----0--|--------0--------0-----0--|
--------3--------3-----3--|--------0--------0-----0--|
-----0--0-----0--0-----0--|-----0--0-----0--0-----0--|
-----2--------2-----2-----|-----2--------2-----2-----|
--0--------0--------0-----|--0--------0--------0-----|
--------------------------|--------------------------|


                                                      
--------0--------0-----0--|--------0--------0-----0--|
--------3--------3-----3--|--------2--------2-----2--|
-----0--0-----0--0-----0--|-----0--0-----0--0-----0--|
-----2--------2-----2-----|-----2--------2-----2-----|
--0--------0--------0-----|--0--------0--------0-----|
--------------------------|--------------------------|


                                                      
--------0--------0-----0--|--------0--------0-----0--|
--------3--------3-----3--|--------0--------0-----0--|
-----0--0-----0--0-----0--|-----0--0-----0--0-----0--|
-----2--------2-----2-----|-----2--------2-----2-----|
--0--------0--------0-----|--0--------0--------0-----|
--------------------------|--------------------------|


                                                      
--------0--------0-----0--|--------0--------0-----0--|
--------3--------3-----3--|--------2--------2-----2--|
-----0--0-----0--0-----0--|-----0--0-----0--0-----0--|
-----2--------2-----2-----|-----2--------2-----2-----|
--0--------0--------0-----|--0--------0--------0-----|
--------------------------|--------------------------|


                                                     
-------2--------2-----2--|--------2-----------------|
-------3--------3-----3--|--------3--------3-----3--|
--2----------2-----------|-----2--------2-----------|
--0-------0--------0-----|--0--------0--------0-----|
-------------------------|--------------------------|
-------------------------|--------------------------|


                                                      
--------0-----------------|--------0-----------------|
--------3--------3-----3--|--------3--------2-----0--|
--------0--------0-----0--|-----0--------0--0-----0--|
-----2--------2-----2-----|--2--------2--------2-----|
--------------------------|-----------0--------0-----|
--0--------0--------------|--------------------------|


                                                     
-------2--------2-----2--|--------2-----------------|
-------3--------3-----3--|--------3--------3-----3--|
--2----------2-----------|-----2--------2-----------|
--0-------0--------0-----|--0--------0--------0-----|
-------------------------|--------------------------|
-------------------------|--------------------------|


                                                      
--------0-----------------|--------0-----------------|
--------3--------3-----3--|--------3--------2-----0--|
--------0--------0-----0--|-----0--------0--0-----0--|
-----2--------2-----2-----|--2--------2--------2-----|
--------------------------|-----------0--------0-----|
--0--------0--------------|--------------------------|


                                                     
-------2--------2-----2--|--------0-----------------|
-------3--------3-----3--|--------3--------3-----3--|
--2----------2-----------|--------0--------0-----0--|
--0-------0--------0-----|-----2--------2-----2-----|
-------------------------|--------------------------|
-------------------------|--0--------0--------------|


                                                      
--------2--------2-----2--|--------3--------3-----3--|
--------2--------2-----2--|--------3--------3-----3--|
-----2--2-----2--2-----2--|-----0--0-----0--0-----0--|
-----4--------4--------4--|-----0--------0-----------|
--------------------4-----|--------------------------|
--2--------2--------2-----|--3--------3--------3-----|


                                                     
-------2--------2-----2--|--------0-----------------|
-------3--------3-----3--|--------3--------3-----3--|
--2----------2-----------|--------0--------0-----0--|
--0-------0--------0-----|-----2--------2-----2-----|
-------------------------|--------------------------|
-------------------------|--0--------0--------------|


                                                      
--------2--------2-----2--|--------3--------3-----3--|
--------2--------2-----2--|--------3--------3-----3--|
-----2--2-----2--2-----2--|-----0--0-----0--0-----0--|
-----4--------4--------4--|-----0--------0-----------|
--------------------4-----|--------------------------|
--2--------2--------2-----|--3--------3--------3-----|


                                                      
--------0--------0-----0--|--------0--------0-----0--|
--------3--------3-----3--|--------0--------0-----0--|
-----0--0-----0--0-----0--|-----0--0-----0--0-----0--|
-----2--------2-----2-----|-----2--------2-----2-----|
--0--------0--------0-----|--0--------0--------0-----|
--------------------------|--------------------------|


                                                      
--------0--------0-----0--|--------0--------0-----0--|
--------3--------3-----3--|--------2--------2-----2--|
-----0--0-----0--0-----0--|-----0--0-----0--0-----0--|
-----2--------2-----2-----|-----2--------2-----2-----|
--0--------0--------0-----|--0--------0--------0-----|
--------------------------|--------------------------|


                                                      
--------0--------0-----0--|--------0--------0-----0--|
--------3--------3-----3--|--------0--------0-----0--|
-----0--0-----0--0-----0--|-----0--0-----0--0-----0--|
-----2--------2-----2-----|-----2--------2-----2-----|
--0--------0--------0-----|--0--------0--------0-----|
--------------------------|--------------------------|


                                                      
--------0--------0-----0--|--------0--------0-----0--|
--------3--------3-----3--|--------2--------2-----2--|
-----0--0-----0--0-----0--|-----0--0-----0--0-----0--|
-----2--------2-----2-----|-----2--------2-----2-----|
--0--------0--------0-----|--0--------0--------0-----|
--------------------------|--------------------------|


                                                     
-------2--------2-----2--|--------2-----------------|
-------3--------3-----3--|--------3--------3-----3--|
--2----------2-----------|-----2--------2-----------|
--0-------0--------0-----|--0--------0--------0-----|
-------------------------|--------------------------|
-------------------------|--------------------------|


                                                      
--------0-----------------|--------0-----------------|
--------3--------3-----3--|--------3--------2-----0--|
--------0--------0-----0--|-----0--------0--0-----0--|
-----2--------2-----2-----|--2--------2--------2-----|
--------------------------|-----------0--------0-----|
--0--------0--------------|--------------------------|


                                                     
-------2--------2-----2--|--------2-----------------|
-------3--------3-----3--|--------3--------3-----3--|
--2----------2-----------|-----2--------2-----------|
--0-------0--------0-----|--0--------0--------0-----|
-------------------------|--------------------------|
-------------------------|--------------------------|


                                                      
--------0-----------------|--------0-----------------|
--------3--------3-----3--|--------3--------2-----0--|
--------0--------0-----0--|-----0--------0--0-----0--|
-----2--------2-----2-----|--2--------2--------2-----|
--------------------------|-----------0--------0-----|
--0--------0--------------|--------------------------|


                                                     
-------2--------2-----2--|--------0-----------------|
-------3--------3-----3--|--------3--------3-----3--|
--2----------2-----------|--------0--------0-----0--|
--0-------0--------0-----|-----2--------2-----2-----|
-------------------------|--------------------------|
-------------------------|--0--------0--------------|


                                                      
--------2--------2-----2--|--------3--------3-----3--|
--------2--------2-----2--|--------3--------3-----3--|
-----2--2-----2--2-----2--|-----0--0-----0--0-----0--|
-----4--------4--------4--|-----0--------0-----------|
--------------------4-----|--------------------------|
--2--------2--------2-----|--3--------3--------3-----|


                                                     
-------2--------2-----2--|--------0-----------------|
-------3--------3-----3--|--------3--------3-----3--|
--2----------2-----------|--------0--------0-----0--|
--0-------0--------0-----|-----2--------2-----2-----|
-------------------------|--------------------------|
-------------------------|--0--------0--------------|


                                                      
--------2--------2-----2--|--------3--------3-----3--|
--------2--------2-----2--|--------3--------3-----3--|
-----2--2-----2--2-----2--|-----0--0-----0--0-----0--|
-----4--------4--------4--|-----0--------0-----------|
--------------------4-----|--------------------------|
--2--------2--------2-----|--3--------3--------3-----|


                                                      
--------0--------0-----0--|--------0--------0-----0--|
--------3--------3-----3--|--------0--------0-----0--|
-----0--0-----0--0-----0--|-----0--0-----0--0-----0--|
-----2--------2-----2-----|-----2--------2-----2-----|
--0--------0--------0-----|--0--------0--------0-----|
--------------------------|--------------------------|


                                                      
--------0--------0-----0--|--------0--------0-----0--|
--------3--------3-----3--|--------2--------2-----2--|
-----0--0-----0--0-----0--|-----0--0-----0--0-----0--|
-----2--------2-----2-----|-----2--------2-----2-----|
--0--------0--------0-----|--0--------0--------0-----|
--------------------------|--------------------------|


                                                      
--------0--------0-----0--|--------0--------0-----0--|
--------3--------3-----3--|--------0--------0-----0--|
-----0--0-----0--0-----0--|-----0--0-----0--0-----0--|
-----2--------2-----2-----|-----2--------2-----2-----|
--0--------0--------0-----|--0--------0--------0-----|
--------------------------|--------------------------|


                                                      
--------0--------0-----0--|--------0--------0-----0--|
--------3--------3-----3--|--------2--------2-----2--|
-----0--0-----0--0-----0--|-----0--0-----0--0-----0--|
-----2--------2-----2-----|-----2--------2-----2-----|
--0--------0--------0-----|--0--------0--------0-----|
--------------------------|--------------------------|


                                                     
-------2--------2-----2--|--------2-----------------|
-------3--------3-----3--|--------3--------3-----3--|
--2----------2-----------|-----2--------2-----------|
--0-------0--------0-----|--0--------0--------0-----|
-------------------------|--------------------------|
-------------------------|--------------------------|


                                                      
--------0-----------------|--------0-----------------|
--------3--------3-----3--|--------3--------2-----0--|
--------0--------0-----0--|-----0--------0--0-----0--|
-----2--------2-----2-----|--2--------2--------2-----|
--------------------------|-----------0--------0-----|
--0--------0--------------|--------------------------|


                                                     
-------2--------2-----2--|--------2-----------------|
-------3--------3-----3--|--------3--------3-----3--|
--2----------2-----------|-----2--------2-----------|
--0-------0--------0-----|--0--------0--------0-----|
-------------------------|--------------------------|
-------------------------|--------------------------|


                                                      
--------0-----------------|--------0-----------------|
--------3--------3-----3--|--------3--------2-----0--|
--------0--------0-----0--|-----0--------0--0-----0--|
-----2--------2-----2-----|--2--------2--------2-----|
--------------------------|-----------0--------0-----|
--0--------0--------------|--------------------------|


                                                     
-------2--------2-----2--|--------2-----------------|
-------3--------3-----3--|--------3--------3-----3--|
--2----------2-----------|-----2--------2-----------|
--0-------0--------0-----|--0--------0--------0-----|
-------------------------|--------------------------|
-------------------------|--------------------------|


                                                      
--------0-----------------|--------0-----------------|
--------3--------3-----3--|--------3--------2-----0--|
--------0--------0-----0--|-----0--------0--0-----0--|
-----2--------2-----2-----|--2--------2--------2-----|
--------------------------|-----------0--------0-----|
--0--------0--------------|--------------------------|


                                                
--------2-----3--2--0-----|--2----------------||
-----3--3-----3--3-----3--|--3----------------||
-----2-----2--------------|--2----------------||
--0--------0--------------|--0----------------||
--------------------------|--0----------------||
--------------------------|-------------------||





Comments


Popular Harmonium tabs & chords
Attends-moi Chords
Pour Un Instant 1 Chords
Un Musicien Parmi Tant Dautres Chords
Vieilles Courroies Chords
Dixie Tabs
Histoire Sans Paroles Tabs
Histoires Sans Paroles 1 Tabs
Aujourdhui Je Dis Bonjour La Vie Ukulele
Chanson Noire Ukulele
Vert Ukulele


Song lyrics



↑ Back to top | Tablatures and chords are parodies/interpretations of the original songs. You may use it for private study, scholarship, research or language learning purposes only
© 2014 AZChords.com Contact us | Privacy policy | DMCA | Add/correct tabs | Request tabs | Top 50 tabs