» » »

Harmonium, On A Mis Quelquun Au Monde Tabs (ver.1)

Artists:  A B C D E F G H I J K L M N O P Q R S T U V W X Y Z # 

On A Mis Quelquun Au Monde Tabs (ver.1)

Harmonium Tabs
 Rating:
4.2/5 (5 votes)
On A Mis Quelquun Au Monde lessons Tabs too difficult? Try these video lessons and learn fast
1
                on a mis quel qu'un au monde ecrit par harmonium

|-----------------------|
|-----5-----------5-----|
|-----6-----------6-----|
|-9---7---9-9-9---7-----|x 6
|-9---7---9-9-9---7-----|
|-7---5---7-7-7---5-----|

|-3---3--3-----3-----3-5----------5-----------5----------|
|-3---3--3-3-----3-----5--5-5-------------5---5-----5----|
|-3---3--3---3-----3---5------5-------------5-5--5--7p5--|
|-5---5--1-------------5--------5----5--5-----5-----5----|
|-5---5--1-------------5----------------------5----------|
|-3---3----------------5----------------------5----------|
-
|-----------------------|
|-----5-----------5-----|
|-----6-----------6-----|
|-9---7---9-9-9---7-----|x 2
|-9---7---9-9-9---7-----|
|-7---5---7-7-7---5-----|

|-3---3--3-----3-----3-5----------5-----------5----------|
|-3---3--3-3-----3-----5--5-5-------------5---5-----5----|
|-3---3--3---3-----3---5------5-------------5-5--5--7p5--|
|-5---5--1-------------5--------5----5--5-----5-----5----|
|-5---5--1-------------5----------------------5----------|
|-3---3----------------5----------------------5----------|

|-3-3---3-------3---3-------5---5-----5-----|
|-3---3---3-----3-3---3-----5----5------3---|
|-3---------3---3-------3---5-5-------------|
|-1-----------1-1---------1-3------3--------|
|-1-------------------------3---------------|
|-------------------------------------------|

|--7-------7--------7----10-10---7-----7------|
|--7----7--------7-------------7---7-7---7----|
|--7------------------7--------------7--------|
|--9--9---------------------------------------|
|-10---------10----------10---10--------------|
|---------------------------------------------|

|---------------------------------------------------------|
|---------------------------------------------------------|
|---<12>-------<12>-----------<12>---------<12>-----------|
|-0-----<12>---<12>--<12>-----<12>--<12>---<12>--<12>-----|
|------------------------<12>------------------------<12>-|
|---------------13-------------12-----------13------------|

|---------------------------------------------------------|
|---------------------------------------------------------|
|---<12>-------<12>-----------<12>---------<12>-----------|
|-------<12>---<12>--<12>-----<12>--<12>---<12>--<12>-----|
|------------------------<12>------------------------<12>-|
|----15---------13-------------12-----------13------------|

|-------5-----------------3-----0---------|
|----6-----6--5-------------0-3-----------|
|---------------7-------2-----------------|
|-5-----7--7------------------0--------2--|
|-----------------8-7---0-----------------|
|-----------------------------------------|

|----------0------0------------0------1-0-----0-----|
|----5---5-----------5--0----5---5----1---1-----1---|
|------6-----6-------6-----6------6---2-----0-----0-|
|--------------7----------------------0-------------|
|-------------------------------------0-------------|
|-7-----------------------------------1-------------|

|-3-3-----3------5---0---0----0---0--|
|-3---3-----3----5-----5--------5----|
|-4-----4--------6---------6---------|
|-5-----------5--7-------------------|
|-5--------------7-------------------|
|-3--------------5-------------------|

|-----0----------0--0---0--0------0-0---|
|-------0--------0--0---1-----------1---|
|---2---------2-----2---0----0------0---|
|-----------------------3------3------3-|
|-2---------2-----------0---------------|
|---------------------------------------|

|-2---------------------------------|
|-2-2-----2-------------------------|
|-3---3-----3-----------------------|
|-5-----5---5-----------------------|
|-5-----------5---------------------|
|-----------------------------------|

|-----------------------|
|-----5-----------5-----|
|-----6-----------6-----|
|-9---7---9-9-9---7-----|
|-9---7---9-9-9---7-----|
|-7---5---7-7-7---5-----|
            
Submit corrections

comments powered by Disqus
↑ Back to top | Harmonium Tabs for On A Mis Quelquun Au Monde. Lyrics for acoustic guitar and electric guitar. 1 Tablatures and chords are parodies/interpretations of the original songs. You may use it for private study, scholarship, research or language learning purposes only