>
 >
Harmonium

Harmonium Guitar Tabs

Harmonium - Harmonium chords, tabs, tablatures, lyrics

Guitar lessons | Add/correct | Request | Top 50 tabs Artists:  A B C D E F G H I J K L M N O P Q R S T U V W X Y Z 0-9

Harmonium Guitar Tabs – Harmonium

CD, Sheet music, Poster

Do you like Harmonium? Share with your friends now
ChordsTabsUkulele
Partition: Patrick Chamberland

E||--------2---2-------3-2----|------2----------2-------3-2-----|
B||--3-----3-----3------------|----2-------2--------2-------3---|
G||-----2---------------------|--2---------2------2---2-------2-|
D||--0--------------0------0--|---------0-------------------0---|
A||---------------------------|---------------------------------|
E||---------------------------|---------------------------------|


                                                           
--------2-----2------3-2-----|--0-----3-----0-------------|
--3-----1-----1--1---1---1-0-|------------3----3----3-3-3-|
-----2-----------------------|-----------------0----0-----|
--0--------0-------0-------0-|--2--0----------------------|
-----------------------------|-------------------2--------|
-----------------------------|----------------------------|


                                                         
-----0--3---0---------0----|--------2----2----2-3-2-----|
--1-----3------3----3----3-|--3-----3-------3-----------|
---------------------------|-----2----------------------|
-----2---------------------|--0---------------0-----0-0-|
--3--------------3---------|----------------------------|
---------------------------|----------------------------|


                                                   
------------0--------0-----|---------------3-2----|
--3--3--1-----1--3-----3-1-|--3----------------3--|
--------2-----2------------|----------------------|
--0--0-----------0---------|--0-------------------|
---------------------------|----------------------|
---------------------------|----------------------|


                                                        
--5-----2-------2-2-2-2-2-|--------2----2--2-2-2--2-2--|
--------3-------3-3-3-3-3-|-----2--2-------2-2-2--2-2--|
--------------------------|-----2-----2----------------|
--0--0------------------0-|--0-------------------------|
--------------------------|----------------------------|
--------------------------|----------------------------|


                                                       
--------2----2--2-2-2--2-2--|---------3--0------0-----|
-----1--1-------1-1-1--1-1--|---------3--3-3--3----0--|
-----2-----2----------------|-------------------------|
--0-------------------------|--2----------------------|
----------------------------|-------------------------|
----------------------------|-------------------------|


                                                         
--------3--3-0-----0--0-0--|--------2----2------2-2-----|
--1-----3--------3----3-3--|--3-----3-------3-----------|
-----0---------------------|-----2----------------------|
---------------------------|--0---------------0-----0-0-|
--3------------------------|----------------------------|
---------------------------|----------------------------|


                                                      
--3---------3----0-3-0-3-0-|--2--------3-2----3-2----|
--1-----0---3-3--3-3-3-3-3-|--3------------3------3--|
--0-----0-----4--0-4-4-4-0-|--2----------------------|
--2-----0--------0-5-5-5-0-|--0----------------------|
--3-----2--------2-------2-|-------------------------|
--------3------------------|-------------------------|


                                                        
--------2-------2-2-2-2-2-|--------2----2--2-2-2--2-2--|
--------3-------3-3-3-3-3-|-----2--2-------2-2-2--2-2--|
-----2------------------2-|-----2-----2----------------|
--0---------------------0-|--0-------------------------|
--------------------------|----------------------------|
--------------------------|----------------------------|


                                                       
--------2----2--2-2-2--2-2--|---------3--0------0-----|
-----1--1-------1-1-1--1-1--|---------3--3-3--3----0--|
-----2-----2----------------|-------------------------|
--0-------------------------|--2----------------------|
----------------------------|-------------------------|
----------------------------|-------------------------|


                                                         
--------3--3-0-----0--0-0--|--------2----2------2-2-----|
--1-----3--------3----3-3--|--3-----3-------3-----------|
-----0---------------------|-----2----------------------|
---------------------------|--0---------------0-----0-0-|
--3------------------------|----------------------------|
---------------------------|----------------------------|


                                                        
--0---------3----3-0-3-0-0-|--0------0--3-0--3-3-3-3-3-|
--1---------3-3--3-3-3-3-3-|--2------0--0-0--0-0-0-0-0-|
--0---------0-0--0-0-0-0-0-|--3------0--0----0-0-0-0-0-|
--2------0-------0-0-0-0-0-|--4------2-------2-2-2-2-2-|
--3------2-------2-2-2-2-2-|--4------2-------2-2-2-2-2-|
---------3-------3-----3-3-|---------0-------0-0-0-0-0-|


                                                
--0------3--3-3--3-3-3-3-3-|--2----------------|
--1------3--3-3--3-3-3-3-3-|--3----------------|
--0------0--0----0-0-0-0-0-|--2----------------|
--2------0-------0-0-0-0-0-|--0----------------|
--3------2-------2-2-2-2-2-|-------------------|
---------3-------3-3-3-3-3-|-------------------|


                                                     
--------------------------|--0--0-0---0--0--0--0--0-|
--3--3-3---3--3--3--3-3-3-|--1--1-1---1--1--1--1--1-|
--3--3-3---3--3--3--3-3-3-|--2--2-2---2--2--2--2--2-|
--5--5-5---5--5--5--5-5-5-|--2--2-2---2--2--2--2--2-|
--5--5-5---5--5--5--5-5-5-|--0--0-0---0--0--0--0--0-|
--3--3-3---3--3--3--3-3-3-|-------------------------|


                                                   
--2--2-2---2--2--2--2--2-|--0--0---0---0---0---0--|
--3--3-3---3--3--3--3--3-|--0--0---0---0---0---0--|
--2--2-2---2--2--2--2--2-|--1--1---1---1---1---1--|
--0--0-0---0--0--0--0--0-|--2--2---4---2---4---2--|
-------------------------|--2--2---2---2---2---2--|
-------------------------|--0--0---0---0---0---0--|


                                                 
--0--0-0---0--0--0--0--0-|--3---3--3---------0--|
--1--1-1---1--1--1--1--1-|--3---3--3---------0--|
--2--2-2---2--2--2--2--2-|--0---0--0---------0--|
--2--2-2---2--2--2--2--2-|--0---0--0---------0--|
--0--0-0---0--0--0--0--0-|--2---2--2------------|
-------------------------|--3---3--3------------|


                                               
--2--2-2----2--2-2----|--2--2-2-2-2-2---------|
--3--3-3----3--3-3----|--3--3-3-3-3-3---------|
--2--2-2----2--2-2----|--2--2-2-2-2-2---------|
--0--0-0----0--0-0----|--0--0-0-0-0-0---------|
----------------------|-----------------------|
----------------------|-----------------------|


                                                           
--2---2-2----2---2-2-2-2-2-|--2---2-2-2-2-2-2---2-2-2-2-2-|
--3---3-3----3---3-3-3-3-3-|--3---3-3-3-3-3-3---3-3-3-3-3-|
--4---4-4----3---3-3-3-3-3-|--2---2-2-2-2-2-1---1-1-1-1-1-|
--4---4-4----4---4-4-4-4-4-|--4---4-4-4-4-4-4---4-4-4-4-4-|
--2---2-2----2---2-2-2-2-2-|------------------------------|
---------------------------|------------------------------|


                                                            
--3---3-3-3-3-3-3---3-3-3-3-3-|--2--2-2-2-2-3--3--3--2-2-2-|
--3---3-3-3-3-3-3---3-3-3-3-3-|--3--3-3-3-3-3--3--3--3-3-3-|
--0---0-0-0-0-0-0---0-0-0-0-0-|--2--2-2-2-2-2--2--2--2-2-2-|
--0---0-0-0-0-0-0---0-0-0-0-0-|--0--0-0-0-0-0--0--0--0-0-0-|
--2---2-2-2-2-2-2---2-2-2-2-2-|----------------------------|
--3---3-3-3-3-3-3---3-3-3-3-3-|----------------------------|


                                                           
--2---2-2----2---2-2-2-2-2-|--2---2-2-2-2-2-2---2-2-2-2-2-|
--3---3-3----3---3-3-3-3-3-|--3---3-3-3-3-3-3---3-3-3-3-3-|
--4---4-4----3---3-3-3-3-3-|--2---2-2-2-2-2-1---1-1-1-1-1-|
--4---4-4----4---4-4-4-4-4-|--4---4-4-4-4-4-4---4-4-4-4-4-|
--2---2-2----2---2-2-2-2-2-|------------------------------|
---------------------------|------------------------------|


                                                   
--3---3-3-3-3-3-3---3-3-3-3-3-|--2----------------|
--3---3-3-3-3-3-3---3-3-3-3-3-|--3----------------|
--0---0-0-0-0-0-0---0-0-0-0-0-|--2----------------|
--0---0-0-0-0-0-0---0-0-0-0-0-|--0----------------|
--2---2-2-2-2-2-2---2-2-2-2-2-|-------------------|
--3---3-3-3-3-3-3---3-3-3-3-3-|-------------------|


                                                           
--2---2-2----2---2-2-2-2-2-|--2---2-2-2-2-2-2---2-2-2-2-2-|
--3---3-3----3---3-3-3-3-3-|--3---3-3-3-3-3-3---3-3-3-3-3-|
--4---4-4----3---3-3-3-3-3-|--2---2-2-2-2-2-1---1-1-1-1-1-|
--4---4-4----4---4-4-4-4-4-|--4---4-4-4-4-4-4---4-4-4-4-4-|
--2---2-2----2---2-2-2-2-2-|------------------------------|
---------------------------|------------------------------|


                                                            
--3---3-3-3-3-3-3---3-3-3-3-3-|--2--2-2-2-2-3--3--3--2-2-2-|
--3---3-3-3-3-3-3---3-3-3-3-3-|--3--3-3-3-3-3--3--3--3-3-3-|
--0---0-0-0-0-0-0---0-0-0-0-0-|--2--2-2-2-2-2--2--2--2-2-2-|
--0---0-0-0-0-0-0---0-0-0-0-0-|--0--0-0-0-0-0--0--0--0-0-0-|
--2---2-2-2-2-2-2---2-2-2-2-2-|----------------------------|
--3---3-3-3-3-3-3---3-3-3-3-3-|----------------------------|


                                                           
--2---2-2----2---2-2-2-2-2-|--2---2-2-2-2-2-2---2-2-2-2-2-|
--3---3-3----3---3-3-3-3-3-|--3---3-3-3-3-3-3---3-3-3-3-3-|
--4---4-4----3---3-3-3-3-3-|--2---2-2-2-2-2-1---1-1-1-1-1-|
--4---4-4----4---4-4-4-4-4-|--4---4-4-4-4-4-4---4-4-4-4-4-|
--2---2-2----2---2-2-2-2-2-|------------------------------|
---------------------------|------------------------------|


                                                           
--3---3-3-3-3-3-3---3-3-3-3-3-|--2-----2---2-------3-2----|
--3---3-3-3-3-3-3---3-3-3-3-3-|--3-----3-----3------------|
--0---0-0-0-0-0-0---0-0-0-0-0-|--2--2---------------------|
--0---0-0-0-0-0-0---0-0-0-0-0-|--0--------------0------0--|
--2---2-2-2-2-2-2---2-2-2-2-2-|---------------------------|
--3---3-3-3-3-3-3---3-3-3-3-3-|---------------------------|


                                                                
------2----------2-------3-2-----|--------2-----2------3-2-----|
----2-------2--------2-------3---|--3-----1-----1--1---1---1-0-|
--2---------2------2---2-------2-|-----2-----------------------|
---------0-------------------0---|--0--------0-------0-------0-|
---------------------------------|-----------------------------|
---------------------------------|-----------------------------|


                                                         
--0-----3-----0-------------|-----0--3---0---------0----|
------------3----3----3-3-3-|--1-----3------3----3----3-|
-----------------0----0-----|---------------------------|
--2--0----------------------|-----2---------------------|
-------------------2--------|--3--------------3---------|
----------------------------|---------------------------|


                                                            
--------2----2----2-3-2-----|--------0-3--0----------0-----|
--3-----3-------3-----------|----1-3-------------------3-1-|
-----2----------------------|-------------2----------------|
--0---------------0-----0-0-|--0-----------------0---------|
----------------------------|------------------------------|
----------------------------|------------------------------|


                                                  
---------------3-2----|--5-----2-------2-2-2-2-2-|
--3----------------3--|--------3-------3-3-3-3-3-|
----------------------|--------------------------|
--0-------------------|--0--0------------------0-|
----------------------|--------------------------|
----------------------|--------------------------|


                                                          
--------2----2--2-2-2--2-2--|--------2----2--2-2-2--2-2--|
-----2--2-------2-2-2--2-2--|-----1--1-------1-1-1--1-1--|
-----2-----2----------------|-----2-----2----------------|
--0-------------------------|--0-------------------------|
----------------------------|----------------------------|
----------------------------|----------------------------|


                                                      
---------3--0------0-----|--------3--3-0-----0--0-0--|
---------3--3-3--3----0--|--1-----3--------3----3-3--|
-------------------------|-----0---------------------|
--2----------------------|---------------------------|
-------------------------|--3------------------------|
-------------------------|---------------------------|


                                                         
--------2----2------2-2-----|--0---------3----0-3-0-3-0-|
--3-----3-------3-----------|--1-----0---3-3--3-3-3-3-3-|
-----2----------------------|--0-----0---0-0--0-0-0-0-0-|
--0---------------0-----0-0-|--2--------------0-0-0-0-0-|
----------------------------|--3-----2--------2-2-2-2-2-|
----------------------------|--------3--------3-3-3-3-3-|


                                                     
--2--------3-2----3-2----|--------2-------2-2-2-2-2-|
--3------------3------3--|--------3-------3-3-3-3-3-|
--2----------------------|-----2------------------2-|
--0----------------------|--0---------------------0-|
-------------------------|--------------------------|
-------------------------|--------------------------|


                                                          
--------2----2--2-2-2--2-2--|--------2----2--2-2-2--2-2--|
-----2--2-------2-2-2--2-2--|-----1--1-------1-1-1--1-1--|
-----2-----2----------------|-----2-----2----------------|
--0-------------------------|--0-------------------------|
----------------------------|----------------------------|
----------------------------|----------------------------|


                                                      
---------3--0------0-----|--------3--3-0-----0--0-0--|
---------3--3-3--3----0--|--1-----3--------3----3-3--|
-------------------------|-----0---------------------|
--2----------------------|---------------------------|
-------------------------|--3------------------------|
-------------------------|---------------------------|


                                                         
--------2----2------2-2-----|--0---------3----0-3-3-3-3-|
--3-----3-------3-----------|--1------0--3-3--3-3-3-3-3-|
-----2----------------------|--0------0--0-0--0-0-0-0-0-|
--0---------------0-----0-0-|--2------0-------0-0-0-0-0-|
----------------------------|--3------2-------2-5-2-2---|
----------------------------|---------3-------3-3-3-3---|


                                                        
--0------0--3-0--3-3-3-3-3-|--0------3--3-3--3-3-3-3-3-|
--2------0--0-0--0-0-0-0-0-|--1------3--3-3--3-3-3-3-3-|
--3------0--0----0-0-0-0-0-|--0------0--0----0-0-0-0-0-|
--4------2-------2-2-2-2-2-|--2------0-------0-0-0-0-0-|
--4------2-------2-2-2-2-2-|--3------2-------2-2-2-2-2-|
---------0-------0-0-0-0-0-|---------3-------3-3-3-3-3-|


                                               
--2----------------|--------------------------|
--3----------------|--3--3-3---3--3--3--3-3-3-|
--2----------------|--3--3-3---3--3--3--3-3-3-|
--0----------------|--5--5-5---5--5--5--5-5-5-|
-------------------|--5--5-5---5--5--5--5-5-5-|
-------------------|--3--3-3---3--3--3--3-3-3-|


                                                    
--0--0-0---0--0--0--0--0-|--2--2-2---2--2--2--2--2-|
--1--1-1---1--1--1--1--1-|--3--3-3---3--3--3--3--3-|
--2--2-2---2--2--2--2--2-|--2--2-2---2--2--2--2--2-|
--2--2-2---2--2--2--2--2-|--0--0-0---0--0--0--0--0-|
--0--0-0---0--0--0--0--0-|-------------------------|
-------------------------|-------------------------|


                                                   
--0--0---0---0---0---0--|--0--0-0---0--0--0--0--0-|
--0--0---0---0---0---0--|--1--1-1---1--1--1--1--1-|
--1--1---1---1---1---1--|--2--2-2---2--2--2--2--2-|
--2--2---4---2---4---2--|--2--2-2---2--2--2--2--2-|
--2--2---2---2---2---2--|--0--0-0---0--0--0--0--0-|
--0--0---0---0---0---0--|-------------------------|


                                              
--3---3--3---------0--|--2--2-2----2--2-2----|
--3---3--3---------0--|--3--3-3----3--3-3----|
--0---0--0---------0--|--2--2-2----2--2-2----|
--0---0--0---------0--|--0--0-0----0--0-0----|
--2---2--2------------|----------------------|
--3---3--3------------|----------------------|


                                                    
--2--2-2-2-2-2---------|--2---2-2----2---2-2-2-2-2-|
--3--3-3-3-3-3---------|--3---3-3----3---3-3-3-3-3-|
--2--2-2-2-2-2---------|--4---4-4----3---3-3-3-3-3-|
--0--0-0-0-0-0---------|--4---4-4----4---4-4-4-4-4-|
-----------------------|--2---2-2----2---2-2-2-2-2-|
-----------------------|---------------------------|


                                                              
--2---2-2-2-2-2-2---2-2-2-2-2-|--3---3-3-3-3-3-3---3-3-3-3-3-|
--3---3-3-3-3-3-3---3-3-3-3-3-|--3---3-3-3-3-3-3---3-3-3-3-3-|
--2---2-2-2-2-2-1---1-1-1-1-1-|--0---0-0-0-0-0-0---0-0-0-0-0-|
--4---4-4-4-4-4-4---4-4-4-4-4-|--0---0-0-0-0-0-0---0-0-0-0-0-|
------------------------------|--2---2-2-2-2-2-2---2-2-2-2-2-|
------------------------------|--3---3-3-3-3-3-3---3-3-3-3-3-|


                                                         
--2--2-2-2-2-3--3--3--2-2-2-|--2---2-2----2---2-2-2-2-2-|
--3--3-3-3-3-3--3--3--3-3-3-|--3---3-3----3---3-3-3-3-3-|
--2--2-2-2-2-2--2--2--2-2-2-|--4---4-4----3---3-3-3-3-3-|
--0--0-0-0-0-0--0--0--0-0-0-|--4---4-4----4---4-4-4-4-4-|
----------------------------|--2---2-2----2---2-2-2-2-2-|
----------------------------|---------------------------|


                                                              
--2---2-2-2-2-2-2---2-2-2-2-2-|--3---3-3-3-3-3-3---3-3-3-3-3-|
--3---3-3-3-3-3-3---3-3-3-3-3-|--3---3-3-3-3-3-3---3-3-3-3-3-|
--2---2-2-2-2-2-1---1-1-1-1-1-|--0---0-0-0-0-0-0---0-0-0-0-0-|
--4---4-4-4-4-4-4---4-4-4-4-4-|--0---0-0-0-0-0-0---0-0-0-0-0-|
------------------------------|--2---2-2-2-2-2-2---2-2-2-2-2-|
------------------------------|--3---3-3-3-3-3-3---3-3-3-3-3-|


                                                              
--2-----2---2-------3-2----|------2----------2-------3-2-----|
--3-----3-----3------------|----2-------2--------2-------3---|
--2--2---------------------|--2---------2------2---2-------2-|
--0--------------0------0--|---------0-------------------0---|
---------------------------|---------------------------------|
---------------------------|---------------------------------|


                                                           
--------2-----2------3-2-----|--0-----3-----0-------------|
--3-----1-----1--1---1---1-0-|------------3----3----3-3-3-|
-----2-----------------------|-----------------0----0-----|
--0--------0-------0-------0-|--2--0----------------------|
-----------------------------|-------------------2--------|
-----------------------------|----------------------------|


                                                         
-----0--3---0---------0----|--------2----2----5-3-2-----|
--1-----3------3----3----3-|--3-----3-------3-7---------|
---------------------------|-----2----------------------|
-----2---------------------|--0---------------0-----0-0-|
--3--------------3---------|----------------------------|
---------------------------|----------------------------|


                                                        
-----0------0---------0----|-------------2--------2----|
--------3------3----3----3-|--------2-----------2-2-2--|
-----0---------------------|-----3------------3-3-3----|
--2-----2------------------|-----4---------------------|
---------------------------|---------------------------|
--0--------------0---------|--2------------------------|


                                                            
----------2---------2--------|--------------------2--------|
-----3-------3--0------3-----|-----3-------3--0------3-----|
-----4---------------------4-|-----4---------------------4-|
------------------4------4---|----------4-------4------4---|
--2-----2--------------------|--0-----0--------------------|
-----------------------------|-----------------------------|


                                                            
----------0---------0--------|----------2---------2--------|
-----3-------3--0------3---0-|-----2-------2---------2-----|
-----4-----------------------|-----3----------3----------3-|
------------------4------4---|------------------4------4---|
-----------------------------|-----------------------------|
--3-----3--------------------|--2-----2--------------------|


                                                            
----------2---------2--------|--------------------2--------|
-----3-------3--0------3-----|-----3-------3--0------3-----|
-----4---------------------4-|-----4---------------------4-|
------------------4------4---|----------4-------4------4---|
--2-----2--------------------|--0-----0--------------------|
-----------------------------|-----------------------------|


                                                            
----------0---------0--------|----------2---------2--------|
-----3-------3--0------3---0-|-----2-------2---------2-----|
-----4-----------------------|-----3----------3----------3-|
------------------4------4---|------------------4------4---|
-----------------------------|-----------------------------|
--3-----3--------------------|--2-----2--------------------|


                                                            
----------2---------2--------|--------------------2--------|
-----3-------3--0------3-----|-----3-------3--0------3-----|
-----4---------------------4-|-----4---------------------4-|
------------------4------4---|----------4-------4------4---|
--2-----2--------------------|--0-----0--------------------|
-----------------------------|-----------------------------|


                                                           
----------0---------0--------|----------2---------2-------|
-----3-------3--0------3---0-|-----2-------2---------2----|
-----4-----------------------|-----3----------3-----------|
------------------4------4---|------------------4------4--|
-----------------------------|----------------------------|
--3-----3--------------------|--2-----2-------------------|


                                                        
-------------2-------------|-------------0-------------|
--------3------3-----3-----|--------2------2-----2-----|
-----2-----2------2-----2--|-----2------------2-----2--|
--0------------------------|-----------2---------------|
---------------------------|--0------------------------|
---------------------------|---------------------------|


                                                         
----------------0-----------|-------------2-------------|
--------3--0------3---3-----|-----0--3--0----3-0--3--0--|
-------------0------0-4--0--|---------------------------|
-----2----------------------|---------------------------|
----------------------------|--2------------------------|
--0-------------------------|---------------------------|


                                                        
-------------0-------------|-------------3-------------|
--------1-------1----1-----|--------0------0-----0-----|
-----0-----0------0-----0--|-----0-----0------0-----0--|
---------------------------|---------------------------|
--3------------------------|---------------------------|
---------------------------|--3------------------------|


                                                           
--------2---2-2-----2------|--2-----2------2-2--2-2-2-2-2-|
--------2---2----2----2----|--2---2--------2-2--2-2-2-2-2-|
-----3--3---3----3-------3-|--3---3---3----3-3--3-3-3-3-3-|
-----4-----------4-------4-|--4----------4-4----4-4-4-4-4-|
---------------------------|--4-------------------4-------|
--2-----------2------------|--2-------------------2-------|


                                                            
----------2---------2--------|--------------------2--------|
-----3-------3--0------3-----|-----3-------3--0------3-----|
-----4---------------------4-|-----4---------------------4-|
------------------4------4---|----------4-------4------4---|
--2-----2--------------------|--0-----0--------------------|
-----------------------------|-----------------------------|


                                                            
----------0---------0--------|----------2---------2--------|
-----3-------3--0------3---0-|-----2-------2---------2-----|
-----4-----------------------|-----3----------3----------3-|
------------------4------4---|------------------4------4---|
-----------------------------|-----------------------------|
--3-----3--------------------|--2-----2--------------------|


                                                            
----------2---------2--------|--------------------2--------|
-----3-------3--0------3-----|-----3-------3--0------3-----|
-----4---------------------4-|-----4---------------------4-|
------------------4------4---|----------4-------4------4---|
--2-----2--------------------|--0-----0--------------------|
-----------------------------|-----------------------------|


                                                           
----------0---------0--------|----------2---------2-------|
-----3-------3--0------3---0-|-----2-------2---------2----|
-----4-----------------------|-----3----------3-----------|
------------------4------4---|------------------4------4--|
-----------------------------|----------------------------|
--3-----3--------------------|--2-----2-------------------|


                                                        
-------------2-------------|-------------0-------------|
--------3------3-----3-----|--------2------2-----2-----|
-----2-----2------2-----2--|-----2------------2-----2--|
--0------------------------|-----------2---------------|
---------------------------|--0------------------------|
---------------------------|---------------------------|


                                                         
----------------0-----------|-------------2-------------|
--------3--0------3---3-----|-----0--3--0----3-0--3--0--|
-------------0------0-4--0--|---------------------------|
-----2----------------------|---------------------------|
----------------------------|--2------------------------|
--0-------------------------|---------------------------|


                                                        
-------------0-------------|-------------3-------------|
--------1-------1----1-----|--------0------0-----0-----|
-----0-----0------0-----0--|-----0-----0------0-----0--|
---------------------------|---------------------------|
--3------------------------|---------------------------|
---------------------------|--3------------------------|


                                                           
--------2---2-2-----2------|--2-----2------2-2--2-2-2-2-2-|
--------2---2----2----2----|--2---2--------2-2--2-2-2-2-2-|
-----3--3---3----3-------3-|--3---3---3----3-3--3-3-3-3-3-|
-----4-----------4-------4-|--4----------4-4----4-4-4-4-4-|
---------------------------|--4-------------------4-------|
--2-----------2------------|--2-------------------2-------|


                                                 
--2--------2-2--2----2--|----2----2-2---2----3--|
--3----3---3-3--3----2--|----2----2-2---2----3--|
--0----0---0-0--0----2--|----2----2-2---2----4--|
--2----2---2-2--2----4--|----4----4-4---4----5--|
--2----2---2-2--2-------|-----------------------|
---------------------2--|----2----2-2---2----3--|


                                                     
----------3-3-----3---------|-----2-----------------|
----3-----3-3-----3---------|---2-------------------|
----4-----4-4-----4-------2-|-----------------------|
----5-----5-5-----5-----2---|-----------------------|
----------------------0-----|-----------------------|
----3-----3-3-----3---------|-----------------------|


                                       
------------------|------------------||
------------------|------------------||
------------------|------------------||
------------------|------------------||
------------------|------------------||
------------------|------------------||





Comments


Popular Harmonium tabs & chords
100000 Raisons Chords
Depuis Lautomne Chords
Harmonium Chords
Si Doucement Chords
Un Musicien Parmi Tant Dautres Chords
Depuis Automne Tabs
On A Mis Quelquun Au Monde Tabs
Vieilles Courroies Tabs
100000 Raisons Ukulele
Chanson Noire Ukulele


Song lyrics



↑ Back to top | Tablatures and chords are parodies/interpretations of the original songs. You may use it for private study, scholarship, research or language learning purposes only
© 2014 AZChords.com Contact us | Privacy policy | DMCA | Add/correct tabs | Request tabs | Top 50 tabs